Oops, an error
Loading. Please wait.

Je Suis Une Bande De Jeunes Bass Tab

version 1
version 1

Whole song

Interactive

10 views 1 this week
no commentswrite comment
1 2 3 4 5
3 more votes to show rating
add to favorites
launch autoscroll
font size
0
reset
guitar tuner
Autoscroll
slow
fast
+/-
esc
set tempo
stop
Help us to improve Ultimate-Guitar.com Take our survey!
×
Author
newg [tm] 45,857
----------------------------------------------------------------------------------------------------
                                 Renaud - Je Suis Une Bande De Jeunes
----------------------------------------------------------------------------------------------------

Album : Laisse béton (1977)
Tempo : 4/4 120
E-mail: gwendal.mollo@orange.fr
Tabbed by: newg    (http://profile.ultimate-guitar.com/newg/)

Plus d'info avec mon fichier guitar pro / powertab

Jouer en triplet

[Intro]

G|-----1--4-----1--4----|--------------1--4----|
D|--2--------2----------|-----1--4--2----------|
A|----------------------|--2-------------------|
E|----------------------|----------------------| x2
 
[Verse 1]

G|-----1--4-----1--4----|--------------1--4----|
D|--2--------2----------|-----1--4--2----------|
A|----------------------|--2-------------------|
E|----------------------|----------------------|

G|-----1--4-----1--4----|--------------1--4----|
D|--2--------2----------|-----------2----------|
A|----------------------|--2--4--6-------------|
E|----------------------|----------------------|

G|-----6--9-----1--4----|
D|--7--------2----------|
A|----------------------|
E|----------------------| x2

G|-----1--4-----1--4----|--------------1--4----|
D|--2--------2----------|-----1--4--2----------|
A|----------------------|--2-------------------|
E|----------------------|----------------------| x2



[Chorus]

G|-----1--4-----6--9----|-----1--4-------------|----------|
D|--2--------7----------|--2-----------1--4----|----1--4--|
A|----------------------|-----------2----------|--2-------|
E|----------------------|----------------------|----------|

G|-----1--4-----6--9----|-----1--4-------------|--------------------|
D|--2--------7----------|--2-----------1--4----|----1--4------1--4--|
A|----------------------|-----------2----------|--2---------2-------|
E|----------------------|----------------------|--------------------|
Suggest correction
Give kudos to tab author, rate the tab!
1 2 3 4 5
comments
print report bad tab
guest
You may want to rate the tab now too:
select rating
Wanna post a correction for this tab? Suggest correction