Oops, an error
Loading. Please wait.

For All That You Have Done solo tab

133 views 3 this week
no commentswrite comment
1 2 3 4 5
3 more votes to show rating
add to favorites
×
Save as Personal and add changes to this tab that will be seen only by you. Learn more ›
×
You can save this tab as Personal to edit and correct it or add notes. All changes will be seen only by you. Learn more »
launch autoscroll
font size
0
reset
how to read this tab
guitar tuner
edit
Autoscroll
slow
fast
+/-
esc
set tempo
stop
Author
Difficulty
-------------------------------------------------------------------------------
                 For All That You Have Done - Rend Collective
-------------------------------------------------------------------------------
Tabbed by:Tyler 
E-mail: tyler.moore@mbu.edu

*Hello, first off, this is NOT from the original song, I made these tabs up,
 but I like the simplicity of them. This is such a beautiful song and I wanted
to make some simple tabs that can maybe add to it. Hope you enjoy. :)

Tuning:Standard

Verse 1
   (D)                     (A)                     (D)
  Your Grace...             be forgot...            mercy...
e|--------------2-----------------------0----------------------2-------------|
B|--------3-----------3-----------2-----------2-----------3----------3-------|
G|-----2-----2-----2-----2-----2-----2-----2-----2-----2----2-----2-----2----|
D|--0-----------------------2-----------------------0------------------------|
A|---------------------------------------------------------------------------|
E|---------------------------------------------------------------------------|
   (G)                     (D)                     (A)
   life...                  will be...             forever song...
e|--------------3-----------------------2-----------------------0------------|
B|--------3-----------3-----------3-----------3-----------2-----------2------|
G|--0--------0-----0-----0-----2-----2-----2-----2-----2-----2-----2-----2---|
D|-----0--------------------0-----------------------2------------------------|
A|---------------------------------------------------------------------------|
E|---------------------------------------------------------------------------|
   (G)          (A)        (D)
   my story...  and my...  light..
e|--------------------------------------0h3----------------------------------|
B|--------3-----------2-----------3------------------------------------------|
G|-----0-----0-----2-----2-----2-----2---------------------------------------|
D|--0-----------2-----------0------------------------------------------------|
A|---------------------------------------------------------------------------|
E|---------------------------------------------------------------------------|

-Follow the same pattern for remaining verses. You can also keep the same 
pattern for the chorus or you can strum, I like to change it up, it adds some
cool effects. 

:) Enjoy.

************************************

| h   hammer-on

************************************

            
            
Suggest correction
Creating personal tab
Creating personal tab
You can edit any tab online and save it as your Personal.

You can edit, replace or remove any tab part or add personal notes – all changes will be seen only by you.

Personal tabs can be accessed anytime from any device, even offline.
Learn more »
Give kudos to tab author, rate the tab!
1 2 3 4 5
comments
print report bad tab
guest
You may want to rate the tab now too:
select rating
Wanna post a correction for this tab? Suggest correction