Oops, an error
Loading. Please wait.

My Lighthouse Acoustic tab

version 1
version 1

Whole song

  • All verses are played the same way and the chorus ... Show more
214 views 18 this week
2 commentsread comments
1 2 3 4 5
3 more votes to show rating
add to favorites
×
Save as Personal and add changes to this tab that will be seen only by you. Learn more ›
×
You can save this tab as Personal to edit and correct it or add notes. All changes will be seen only by you. Learn more »
launch autoscroll
font size
0
reset
how to read this tab
guitar tuner
edit
Autoscroll
slow
fast
+/-
esc
set tempo
stop
About this tab version
All verses are played the same way and the chorus is played with a normal strumming pattern. Was this info helpful? Yes No
[Verse 1]
        In       my   wrestling   and      in       my     doubts
         C                C                 F                C
e|---------------|---------------|---------------|---------------|
B|----------1----|----------1----|----------1----|----------1----|
G|------------0--|------------0--|------------2--|------------0--|
D|-----2---------|-----2---------|-----3---------|-----2---------|
A|--3-----3------|--3-----3------|--3-----3------|--3-----3------|
E|---------------|---------------|---------------|---------------|

        In       my    failures   You     won't   walk     out
         F                C                 G               G
e|---------------|---------------|---------------|---------------|
B|----------1----|----------1----|----------3----|----------3----|
G|------------2--|------------0--|------------0--|------------0--|
D|-----3---------|-----2---------|-----0---------|-----0---------|
A|--3-----3------|--3-----3------|--2-----2------|--2-----2------|
E|---------------|---------------|---------------|---------------|

       Your     great    love     will    lead      me    through
         C                C                 F                C
e|---------------|---------------|---------------|---------------|
B|----------1----|----------1----|----------1----|----------1----|
G|------------0--|------------0--|------------2--|------------0--|
D|-----2---------|-----2---------|-----3---------|-----2---------|
A|--3-----3------|--3-----3------|--3-----3------|--3-----3------|
E|---------------|---------------|---------------|---------------|

        You  are  the   peace    in my   troubled          sea
         F                C                 G               C
e|---------------|---------------|---------------|---------------|
B|----------1----|----------1----|----------3----|----------1----|
G|------------2--|------------0--|------------0--|------------0--|
D|-----3---------|-----2---------|-----0---------|-----2---------|
A|--3-----3------|--3-----3------|--2-----2------|--3-----3------|
E|---------------|---------------|---------------|---------------|
        
        You  are  the   peace    in my   troubled          sea
         F                C                 G               C
e|---------------|---------------|---------------|----------------|
B|----------1----|----------1----|-----------3---|----------1-----|
G|------------2--|------------0--|------------0--|------------0---|
D|-----3---------|-----2---------|-----0---------|-----2----------|
A|--3-----3------|--3-----3------|--2-----2------|--3-----3-------|
E|---------------|---------------|---------------|----------------|

[Verse 2]
        In      the    silence  You       won't    let      go
         C                C                 F                C
e|---------------|---------------|---------------|---------------|
B|----------1----|----------1----|----------1----|----------1----|
G|------------0--|------------0--|------------2--|------------0--|
D|-----2---------|-----2---------|-----3---------|-----2---------|
A|--3-----3------|--3-----3------|--3-----3------|--3-----3------|
E|---------------|---------------|---------------|---------------|

        In     my     questions  Your  truth    will    hold
        F                C               G               G
e|---------------|---------------|---------------|---------------|
B|----------1----|----------1----|----------3----|----------3----|
G|------------2--|------------0--|------------0--|------------0--|
D|-----3---------|-----2---------|-----0---------|-----0---------|
A|--3-----3------|--3-----3------|--2-----2------|--2-----2------|
E|---------------|---------------|---------------|---------------|

       Your    great    love    will    lead    me     through
        C                C               F                C
e|---------------|---------------|---------------|---------------|
B|----------1----|----------1----|----------1----|----------1----|
G|------------0--|------------0--|------------2--|------------0--|
D|-----2---------|-----2---------|-----3---------|-----2---------|
A|--3-----3------|--3-----3------|--3-----3------|--3-----3------|
E|---------------|---------------|---------------|---------------|

        You  are  the   peace  in my   troubled         sea
         F               C               G               C
e|---------------|---------------|---------------|---------------|
B|----------1----|----------1----|----------3----|----------1----|
G|------------2--|------------0--|------------0--|------------0--|
D|-----3---------|-----2---------|-----0---------|-----2---------|
A|--3-----3------|--3-----3------|--2-----2------|--3-----3------|
E|---------------|---------------|---------------|---------------|
        
        You  are  the   peace  in my  troubled          sea
         F               C               G               C
e|---------------|---------------|---------------|----------------|
B|----------1----|----------1----|-----------3---|----------1-----|
G|------------2--|------------0--|------------0--|------------0---|
D|-----3---------|-----2---------|-----0---------|-----2----------|
A|--3-----3------|--3-----3------|--2-----2------|--3-----3-------|
E|---------------|---------------|---------------|----------------|

[Chorus]
F       C      Am      G
My lighthouse, My lighthouse
F              C        Am             G
Shining in the darkness, I will follow You
F       C      Am      G
My lighthouse, My lighthouse
F                C        Am             G
I will trust the promise, You will carry me
          F      C        G
Safe to shore-woah-woah
          F      C        G
Safe to shore-woah-woah
          F      C        G
Safe to shore-woah-woah
         C
Safe to shore

[Verse 3]
         I    won't    fear     what    tomorrow        brings
         C               C               F                C
e|---------------|---------------|---------------|---------------|
B|----------1----|----------1----|----------1----|----------1----|
G|------------0--|------------0--|------------2--|------------0--|
D|-----2---------|-----2---------|-----3---------|-----2---------|
A|--3-----3------|--3-----3------|--3-----3------|--3-----3------|
E|---------------|---------------|---------------|---------------|

       With     each   morning   I'll   rise   and     sing
         F               C               G               G
e|---------------|---------------|---------------|---------------|
B|----------1----|----------1----|----------3----|----------3----|
G|------------2--|------------0--|------------0--|------------0--|
D|-----3---------|-----2---------|-----0---------|-----0---------|
A|--3-----3------|--3-----3------|--2-----2------|--2-----2------|
E|---------------|---------------|---------------|---------------|

        My     God's   love     will    lead    me     through
         C               C               F                C
e|---------------|---------------|---------------|---------------|
B|----------1----|----------1----|----------1----|----------1----|
G|------------0--|------------0--|------------2--|------------0--|
D|-----2---------|-----2---------|-----3---------|-----2---------|
A|--3-----3------|--3-----3------|--3-----3------|--3-----3------|
E|---------------|---------------|---------------|---------------|

        You  are  the  peace   in my  troubled          sea
         F               C               G               C
e|---------------|---------------|---------------|---------------|
B|----------1----|----------1----|----------3----|----------1----|
G|------------2--|------------0--|------------0--|------------0--|
D|-----3---------|-----2---------|-----0---------|-----2---------|
A|--3-----3------|--3-----3------|--2-----2------|--3-----3------|
E|---------------|---------------|---------------|---------------|
        
        You  are  the  peace   in my  troubled          sea
         F               C               G               C
e|---------------|---------------|---------------|----------------|
B|----------1----|----------1----|-----------3---|----------1-----|
G|------------2--|------------0--|------------0--|------------0---|
D|-----3---------|-----2---------|-----0---------|-----2----------|
A|--3-----3------|--3-----3------|--2-----2------|--3-----3-------|
E|---------------|---------------|---------------|----------------|

[Bridge]
F
Fire before us
Am          G
You're the brightest
F         C         Am        G
You will lead us through the storms

            
            
Suggest correction
Creating personal tab
Creating personal tab
You can edit any tab online and save it as your Personal.

You can edit, replace or remove any tab part or add personal notes – all changes will be seen only by you.

Personal tabs can be accessed anytime from any device, even offline.
Learn more »
Give kudos to tab author, rate the tab!
1 2 3 4 5
comments
print report bad tab
2 comments total.
0 reply
ethenns51 82 Aug 13, 2017 08:46 PM, edited on August 16 2017, 08:23 pm

...

0 reply
Hitman48-1 60 Aug 16, 2017 11:34 AM

Can you explain why?

guest
You may want to rate the tab now too:
select rating
Wanna post a correction for this tab? Suggest correction