Oops, an error
Loading. Please wait.

Fil De Verre Tab

1,307 views 3 this week
no commentswrite comment
1 2 3 4 5
please rate
add to favorites
launch autoscroll
font size
0
reset
how to read this tab
guitar tuner
Autoscroll
slow
fast
+/-
esc
set tempo
stop
Help us to improve Ultimate-Guitar.com Take our survey!
×
Author
Difficulty
intermediate
   D                D                D#                   D#

  B-D (piano)                        A-D (piano)

E|-------------------------------------------------------------------------|
B|-------------------------------------------------------------------------|
G|-------------------------------------------------------------------------|
D|-9-----9----9-----9-----9----9-----10-----10-----10-----10----10-----12--|
A|----10---10---10-----10---10---10------10-----10----10-----10-----10-----|
E|-10---------------10---------------11-------------------11---------------|



   D                D                D#                   D#

  B-D  (piano)                       A-D  (piano)

E|-------------------------------------------------------------------------
B|-------------------------------------------------------------------------|
G|-------------------------------------------------------------------------|
D|-9-----9----9-----9-----9----9-----10-----10-----10-----10----10-----12--|
A|----10---10---10-----10---10---10------10-----10----10-----10-----10-----|
E|-10---------------10---------------11-------------------11---------------|



   D                D                E                   E

   B  (piano)                        B-D (piano)

E|-------------------------------------------------------------------------|
B|-------------------------------------------------------------------------|
G|-------------------------------------------------------------------------|
D|-9-----9----9-----9-----9----9-----9-----9------9-------9-----9----9-----|
A|----10---10---10-----10---10---10-----10-----10---10-------10---10---10--|
E|-10---------------10---------------0--------------------0----------------|



   C                C#                E                   E

   A-D              B-D               B  (piano)

E|-------------------------------------------------------------------------|
B|-------------------------------------------------------------------------|
G|-------------------------------------------------------------------------|
D|-7-----7----7-----7-----7----7------9-----9-----9-------9-----9----9-----|
A|----10---10---10-----10---10---10------10----10----10------10---10---10--|
E|-8----------------9-----------------0-------------------0----------------|

   B                C#                E                   E

E|-------------------------------------------------------------------------|
B|-8----8---8----8----8---8-----10---10---10----10---10---12---------------|
G|----9---9---9-----9---9---9------9----9----9-----9----9------------------|
D|-9-------------9--------------11--------------11-------------------------|
A|-------------------------------------------------------------------------|
E|-------------------------------------------------------------------------|
Suggest correction
Give kudos to tab author, rate the tab!
1 2 3 4 5
comments
print report bad tab
guest
You may want to rate the tab now too:
select rating
Wanna post a correction for this tab? Suggest correction