Oops, an error
Loading. Please wait.

A Fire No Longer Burns Tab

55 views 1 this week
no commentswrite comment
1 2 3 4 5
3 more votes to show rating
add to favorites
launch autoscroll
font size
0
reset
how to read this tab
guitar tuner
Autoscroll
slow
fast
+/-
esc
set tempo
stop
Help us to improve Ultimate-Guitar.com Take our survey!
×
Renounced - a fire no longer burns (Guitar one only)

D|----------6--6--6--6--6--6--6--6--6--6--6--6----------------------------------------------|
A|----------10-10-10-10-10-10-10-10-10-10-10-10----------10-10-10-10-10-10-10-10------------|
F|------------------------------------------------------------------------------------------|
C|-------------------------------------------------------------------------------10877------| x2
G|------------------------------------------------------------------------------------10877-|
C|-00000000-------------------------------------00000000------------------------------------|
   ********                                     ********

D|-----------------------------------------------------------------|
A|-----------------------------------------------------------------|
F|-----------------------------------------------------------------|
C|---------8-------------------------------8-----------------------| x2
G|-0-0-0-0---6-5-6-0-0-0-0-3-5-6---0-0-0-0---6-5-6-5-3-5-6---------|
C|-0-0-0-0---------0-0-0-0-------4-0-0-0-0-----------------4-1-5-1-|
   * * * *         * * * *         * * * *

D|---------------------------------|
A|---------------------------------|
F|-------------------------0-0-0-0-|
C|-------------------------4-4-4-4-|
G|---------------------------------|
C|-0-2-1-0-3-2-0-2-1-3-2-1---------|

D|-----------------------------------------------------------------|
A|-----------------------------------------------------------------|
F|---------------------------------------------------0-0-0-0-0-0-0-|
C|---------------------------------------------------4-4-4-4-4-4-4-| 1,3
G|-0-2-1-0-3-2-0-1-0-2-1-0-3-2-1-2-1-0-2-1-3-2-0-1-0---------------|
C|-0-2-1-0-3-2-0-1-0-2-1-0-3-2-1-2-1-0-2-1-3-2-0-1-0---------------|
   * * * * * * *   * * * * * *       * * * * * * * * 

D|-----------------------------------------------------------------|
A|---------------------------------------------------3-3-3-3-3-3-3-|
F|---------------------------------------------------6-6-6-6-6-6-6-|
C|-----------------------------------------------------------------| 2,4
G|-0-2-1-0-3-2-0-1-0-2-1-0-3-2-1-2-1-0-2-1-3-2-0-1-0---------------|
C|-0-2-1-0-3-2-0-1-0-2-1-0-3-2-1-2-1-0-2-1-3-2-0-1-0---------------|
   * * * * * * *   * * * * * *       * * * * * * * * 

D|-------------------------------------------------------------------------|
A|-------------------------------------------------------------------------|
F|-------------------------------------------------------------------------|
C|-0------7p0-0-10--10-10-10-10-10-10-10-0------7p0-0-10--10-10-10-7-7-7-7-| 
G|-0----------0-8---8--8--8--8--8--8--8--0----------0-8---8--8--8--5-5-5-5-|
C|-0-10p0-----0-8---8--8--8--8--8--8--8--0-10p0-----0-8---8--8--8--5-5-5-5-|

D|------------------------------------------------------------------------------|
A|------------------------------------------------------------------------------|
F|------------------------------------------------------------------------------|
C|-0------7p0-0-10--10-10-10-10-10-10-10-7--7-7-7-7-7-7-10-10-10-10-10-10-10-10-| 
G|-0----------0-8---8--8--8--8--8--8--8--5--5-5-5-5-5-5-8--8--8--8--8--8--8--8--|
C|-0-10p0-----0-8---8--8--8--8--8--8--8--5--5-5-5-5-5-5-8--8--8--8--8--8--8--8--|

D|-----------------------------------------------------------------|
A|-----------------------------------------------------------------|
F|---------------------------------------------------0-0-0-0-0-0-0-|
C|---------------------------------------------------4-4-4-4-4-4-4-|
G|-0-2-1-0-3-2-0-1-0-2-1-0-3-2-1-2-1-0-2-1-3-2-0-1-0---------------|
C|-0-2-1-0-3-2-0-1-0-2-1-0-3-2-1-2-1-0-2-1-3-2-0-1-0---------------|
   * * * * * * *   * * * * * *       * * * * * * * * 

D|-----------------------------------------------------------------|
A|---------------------------------------------------3-3-3-3-3-3-3-|
F|---------------------------------------------------6-6-6-6-6-6-6-|
C|-----------------------------------------------------------------|
G|-0-2-1-0-3-2-0-1-0-2-1-0-3-2-1-2-1-0-2-1-3-2-0-1-0---------------|
C|-0-2-1-0-3-2-0-1-0-2-1-0-3-2-1-2-1-0-2-1-3-2-0-1-0---------------|
   * * * * * * *   * * * * * *       * * * * * * * * 

D|-------------------------------------------------------------------------|
A|-------------------------------------------------------------------------|
F|-------------------------------------------------------------------------|
C|-0------7p0-0-10--10-10-10-10-10-10-10-0------7p0-0-10--10-10-10-7-7-7-7-| 1,3
G|-0----------0-8---8--8--8--8--8--8--8--0----------0-8---8--8--8--5-5-5-5-|
C|-0-10p0-----0-8---8--8--8--8--8--8--8--0-10p0-----0-8---8--8--8--5-5-5-5-|

D|------------------------------------------------------------------------------|
A|------------------------------------------------------------------------------|
F|------------------------------------------------------------------------------|
C|-0------7p0-0-10--10-10-10-10-10-10-10-7--7-7-7-7-7-7-10-10-10-10-10-10-10-10-| 2,4
G|-0----------0-8---8--8--8--8--8--8--8--5--5-5-5-5-5-5-8--8--8--8--8--8--8--8--|
C|-0-10p0-----0-8---8--8--8--8--8--8--8--5--5-5-5-5-5-5-8--8--8--8--8--8--8--8--|

D|---------------------------------------------|
A|-------18-18-18-------18-18-18---18-18-18-18-|
F|-------21-21-21-------21-21-21---21-21-21-21-|
C|---------------------------------------------| x3
G|-0-0-0----------0-0-0----------0-------------|
C|-0-0-0----------0-0-0----------0-------------|
   * * *          * * *          *

D|----------------------------------|
A|-------18-18-18-----18------------|
F|-------21-21-21-----21-(Let ring)-|
C|----------------------------------|
G|-0-0-0----------0-0---------------|
C|-0-0-0----------0-0---------------|
   * * *          * *

D|------------------------------------------------------------------|
A|---------18---------18-----------------18---------18-----18-22-18-|
F|---------21---------21-----------------21---------21--21----------|
C|------------------------------------------------------------------| x2
G|-0--0--0----0--0--0----0-0-0-0-0--0--0----0--0--0-----------------|
C|-0--0--0----0--0--0----0-0-0-0-0--0--0----0--0--0-----------------|
   *  *  *    *  *  *    * * * * *  *  *    *  *  *

D|---------------------------------|
A|---------18---------18-----------|
F|---------21---------21-----------|
C|---------------------------------| x4
G|-0--0--0----0--0--0----0-0-0-0-0-|
C|-0--0--0----0--0--0----0-0-0-0-0-|
   *  *  *    *  *  *    * * * * *  

Slow down a bit ^^^

D|-------------------|----------------|-------------|-5------------|
A|-------10----10----|-13-----------5-|-----6---6---|-6------------|
F|----10----10----10-|----10------5---|---5---5---5-|-5-(Let ring)-|
C|-12----------------|-------12-7-----|-8-----------|-8------------|
G|-------------------|----------------|-------------|--------------|
C|------ x 3 --------|----------------|--- x3 ------|--------------|

Chorus pedal ^^^

D|-------------5--5--5-|-------------------------------|-------------------------------|
A|-------------6--6--6-|-------------------11----11----|------8h10p8---------8---------|
F|-------------5--5--5-|----------------10----10----10-|-9h10--------10-9h10---10-9h10-|
C|-------------8--8--8-|-------------13----------------|-------------------------------|
G|-0--0--0--0----------|-0--0--0--0--------------------|-------------------------------|
C|-0--0--0--0----------|-0--0--0--0--------------------|-------------------------------|
   *  *  *  *            *  *  *  *
   1,2,3,5,6,7 ^^^                   4^                           8^

D|---------------------------------------------------------------------------------|
A|---------------------------------------------------------------------------------|
F|-------------10--10-10-10-10-10--10-10-10-10-------------10--10-10-10-10---------|
C|-------------10--10-10-10-10-10--10-10-10-10-------------10--10-10-10-10---------| 1,3
G|-------------8---8--8--8--8--8---8--8--8--8--------------8---8--8--8--8----------|
C|-7-8-7-5-7-0-8---8--8--8--8--8---8--8--8--8--7-8-7-5-7-0-8---8--8--8--8--000-000-|
                                                                           *** ***

D|---------------------------------------------------------------------|
A|-------------------------------------------------4-----4-----4-----4-|
F|-------------10--10-10-10-10-10--10-10-10-10-----7-----7-----7-----7-|
C|-------------10--10-10-10-10-10--10-10-10-10-------------------------| 2,4
G|-------------8---8--8--8--8--8---8--8--8--8--------------------------|
C|-7-8-7-5-7-0-8---8--8--8--8--8---8--8--8--8--000---000---000---000---|
                                               ***   ***   ***   ***

D|---------------------|
A|-(4)-----------------|
F|-(7)-(Let ring)------|
C|-------------------1-|
G|-------------------1-|
C|-------------------1-|

D|----------------------------------|
A|----------------------------------|
F|----------------------------------|
C|----------------------------------|
G|----------------------------------|
C|-000-000-000-000-000-000-00-0-0-0-|
   *** *** *** *** *** *** ** * * *
Suggest correction
Give kudos to tab author, rate the tab!
1 2 3 4 5
comments
print report bad tab
guest
You may want to rate the tab now too:
select rating
Wanna post a correction for this tab? Suggest correction