Oops, an error
Loading. Please wait.

Abandon Your King tab

16 views 1 this week
no commentswrite comment
1 2 3 4 5
3 more votes to show rating
add to favorites
×
Save as Personal and add changes to this tab that will be seen only by you. Learn more ›
×
You can save this tab as Personal to edit and correct it or add notes. All changes will be seen only by you. Learn more »
launch autoscroll
font size
0
reset
how to read this tab
guitar tuner
edit
Autoscroll
slow
fast
+/-
esc
set tempo
stop
This is just one guitar part

D|--------------------------------------------------------------------|
A|--------------------------------------------------------------------|
F|---7-----10----9--------9-10-9----9-----9-----9-----9-----7-----7---|
C|-----7------7----7---10--------10-----7---7-----7-----7-----7-----7-| 1,3
G|--------------------------------------------------------------------|
C|-8-----8------8----8----------------7-------7-----7-----7-----7-----|

D|----------------------------------------------------------------------------|
A|-----------------------------------------------------------------13---------|
F|---7-----10-----9--------9-10-9----9-----10-----9-----12-10-9-10----10-9-10-|
C|-----7------7-----7---10--------10-----7----7-----7-------------------------| 2,4
G|----------------------------------------------------------------------------|
C|-8-----8------8-----8----------------7--------7-----7-----------------------|

D|-------------------------------------------------|
A|-------------------------------------------------|
F|-------------------------------------12----------|
C|-10-------10-------10-------10----10----10----10-| x3
G|----12-12----12-12----12-12----12----------12----|
C|-------------------------------------------------|
   *   *  *  *  *  *  *  *  *  *  *  *     *  *  *

D|-------------------|
A|-------------------|
F|-12--10--9--7--7/9-|
C|-------------------|
G|-------------------|
C|-------------------|

D|-----------------------------------------------------------------------------------------|
A|-----------------------------------------------------------------------------------------|
F|-------------------------------------12--------------------------------------------------|
C|-10-------10-------10-------10----10----10----10-8-------8-------8-------8-------8-------| x3
G|----12-12----12-12----12-12----12----------12------12-12---12-12---12-12---12-12---10-10-|
C|-----------------------------------------------------------------------------------------|
   *   *  *  *  *  *  *  *  *  *  *  *     *  *  *    *  * *  * *  *  *  * *  *  * *  *  *

D|---------------------------------------------------------------------------------|
A|---------------------------------------------------------------------------------|
F|-------------------------------------12------------------------------------------|
C|-10-------10-------10-------10----10----10----10-8-------8-------8-------8-------|
G|----12-12----12-12----12-12----12----------12------12-12---12-12---12-12---12-12-|
C|---------------------------------------------------------------------------------|
   *   *  *  *  *  *  *  *  *  *  *  *     *  *  *    *  * *  * *  *  *  * *  *  * 

D|-------------------------------------------------------------------|
A|-------------------------------------------------------------------|
F|-------------------------------------------------------------------|
C|-2--1--3--2-----2-----2-----2-----2--1--3--1-----1-----1-----1-----| x3
G|-2--1--3--2-2-2-2-2-2-2-2-2-2-----2--1--3--1-1-1-1-1-1-1-1-1-1-----|
C|-2--1--3--2-2-2-2-2-2-2-2-2-2-222-2--1--3--1-1-1-1-1-1-1-1-1-1-111-|
              * *   * *   * *   ***            * *   * *   * *   ***

D|---------------------------------------------------------------------------|
A|-----------------------------------------------------------3-3-3-3-3-3-3-3-|
F|-----------------------------------------------------------3-3-3-3-3-3-3-3-|
C|-2--1--3--2-----2-----2-----2-----2--1--3------------------1-1-1-1-1-1-1-1-|
G|-2--1--3--2-2-2-2-2-2-2-2-2-2-----2--1--3--1-1-1-1-1-1-1-1-1-1-1-1-1-1-1-1-|
C|-2--1--3--2-2-2-2-2-2-2-2-2-2-222-2--1--3--1-1-1-1-1-1-1-1-1-1-1-1-1-1-1-1-|
              * *   * *   * *   ***            * * * * * * *

D|----------------- x2 -------------|--------------------------------------------------------------------|
A|-------11-11-11----------11-11-11-|--------------------------------------------------------------------|
F|-------14-14-14----------14-14-14-|-10-10-10-10-10-10-10-8-8-8-8-8-17-17-17-17-17-17-17-15-15-15-15-15-|
C|-------15-15-15----------15-15-15-|--------------------------------------------------------------------|
G|-0-0-0-13-13-13----------13-13-13-|-8--8--8--8--8--8--8--6-6-6-6-6-15-15-15-15-15-15-15-13-13-13-13-13-|
C|-0-0-0----------00000000----------|--------------------------------------------------------------------|
   * * *          ********

D|----------------- x2 -------------|------------------------------------------------------------------------|
A|-------11-11-11----------11-11-11-|------------------------------------------------------------------------|
F|-------14-14-14----------14-14-14-|10-10-10-10-10-10-10-12-12-12-12-12-17-17-17-17-17-17-17-15-15-15-15-15-|
C|-------15-15-15----------15-15-15-|------------------------------------------------------------------------|
G|-0-0-0-13-13-13----------13-13-13-|8--8--8--8--8--8--8--10-10-10-10-10-15-15-15-15-15-15-15-13-13-13-13-13-|
C|-0-0-0----------00000000----------|------------------------------------------------------------------------|
   * * *          ********

Repeat above two bars

D|---------------------------------|--------------------------------------------------------------------|
A|-----5---6p5---5-8p6-5-------5h6-|--------------------------------------------------------------------|
F|-------5-----5---------5---------|-10-10-10-10-10-10-10-8-8-8-8-8-17-17-17-17-17-17-17-15-15-15-15-15-|
C|---7-----------------------7-----|--------------------------------------------------------------------|
G|-8-----------------------8-------|-8--8--8--8--8--8--8--6-6-6-6-6-15-15-15-15-15-15-15-13-13-13-13-13-|
C|----------- x2 ------------------|--------------------------------------------------------------------|

D|---------------------------------|-------------------------------------------------|
A|-----5---6p5---5-8p6-5-------5h6-|-------------------------6-6-6-6-6-6-6-6-6-6-6-6-|
F|-------5-----5---------5---------|-------------------------8-8-8-8-8-8-8-8-8-8-8-8-|
C|---7-----------------------7-----|-1-1-1-1-1-1-1-1-1-1-1-1-8-8-8-8-8-8-8-8-8-8-8-8-|
G|-8-----------------------8-------|-1-1-1-1-1-1-1-1-1-1-1-1-------------------------|
C|----------- x2 ------------------|-1-1-1-1-1-1-1-1-1-1-1-1-------------------------|

D|-----------------------------------------------------------------|
A|-----------------------------------------------------------------|
F|-----------------------------------------------------------------|
C|-----------9-6-----6/9-------------------------------------------|
G|-0-0-0-0-5-----8-5--------1-3-1-0-0-0-0--------------------1-4-3-|
C|-0-0-0-0---------------00-1-3-1-0-0-0-0-----------------00-1-4-3-|
   * * * *               ** * * * * * * *                 ** * * *     

D|-----------------------------------------------------------------|
A|------------------------------------------12-9------9\6----------|
F|----------------------------------------7------10-7--------------|
C|-----------9-6-----6/9-------------------------------------------| x3
G|-0-0-0-0-5-----8-5--------1-3-1-0-0-0-0--------------------1-4-3-|
C|-0-0-0-0---------------00-1-3-1-0-0-0-0-----------------00-1-4-3-|
   * * * *               ** * * * * * * *                 ** * * *

D|----------------------------------------------------------------------------------------------------------|
A|------------------------------------------------------------5---------------------------------------------|
F|------------------------------------------------------------8-(ring out)----------------------------------|
C|-0--------------------------------------------------------------------------------------------------------|
G|-0-(ring out)---------------------------------------------------------------------------------------------|
C|-0--------------------------------------------------------------------------------------------------------|

D|-----------------------------------------------------------|
A|-----------------------------------------------------------|
F|-----------------------------------------------------------|
C|---------3---------4---------3-----------------------------| x8
G|-----------------------------------------------------------|
C|-0-1-0-0---0-1-0-0---0-1-0-0---0-0-4-3-1-1-4-3-1-1-0-0-1-3-|
   * * * *   * * * *   * * * *   * * * * * * * * * * * * * *

D|-play at the-|-- 1 --|------- 2 --------|-- 3 --|--- 4 ---|-- 5 --|-----6h9-----7h10-|-- 7 -|-- 8 --|
A|-start of ---|-------|------------------|-------|---------|-------|-5h8-----6h9------|------|-------|
F|-every bar---|-------|------------------|-------|---------|-------|------------------|------|-------|
C|-------------|-drums-|-----6h9-----7h10-|-drums-|-guitar -|-drums-|------------------|-stop-|-drums-|
G|-0-1-0-4-3-1-|-------|-5h8-----6h9------|-------|---2-----|-------|------------------|------|-------|
C|-0-1-0-4-3-1-|-------|------------------|-------|---------|-------|------ 6 ---------|------|-------|
   * * * * * *

D|-------------------------------------------------------------------------|
A|-------------------------------------------------------------------------|
F|-7--7-7-7-7-7-7-7-5-5-5-5-5-5-5-5-9--9-9-9-9-9-9-10-10-10-10-10-10-10-10-|
C|-------------------------------------------------------------------------| 1,3,7
G|-5--5-5-5-5-5-5-5-5-5-5-5-5-5-5-5-7--7-7-7-7-7-7-7--7--7--7--7--7--7--7--|
C|-------------------------------------------------------------------------|

D|-------------------------------------------------------------------|
A|-------------------------------------------------------------------|
F|-------------------------------------------------------------------|
C|-7--7-7-7-7-7-7-7-5-5-5-5-5-5-5-5-5--5-5-5-5-5-5-5-3-3-3-3-3-3-3-3-| 2,4,6,8
G|-3--3-3-3-3-3-3-3-3-3-3-3-3-3-3-3-1--1-1-1-1-1-1-1-1-1-1-1-1-1-1-1-|
C|-3--3-3-3-3-3-3-3-3-3-3-3-3-3-3-3-1--1-1-1-1-1-1-1-1-1-1-1-1-1-1-1-|

D|---------------------------------------------------------------------|
A|---------------------------------------------------------------------|
F|-7--7-7-7-7-7-7-7-5-5-5-5-5-5-5-5-9--9-9-9-9-9-9-12-10-9-9h10p9-7----|
C|------------------------------------------------------------------10-| 5
G|-5--5-5-5-5-5-5-5-5-5-5-5-5-5-5-5-7--7-7-7-7-7-7---------------------|
C|---------------------------------------------------------------------|

D|--------------|
A|--------------|
F|--------------|
C|-3------------|
G|-0-(Ring out)-|
C|-0------------|

Suggest correction
Creating personal tab
Creating personal tab
You can edit any tab online and save it as your Personal.

You can edit, replace or remove any tab part or add personal notes – all changes will be seen only by you.

Personal tabs can be accessed anytime from any device, even offline.
Learn more »
Give kudos to tab author, rate the tab!
1 2 3 4 5
comments
print report bad tab
guest
You may want to rate the tab now too:
select rating
Wanna post a correction for this tab? Suggest correction