Oops, an error
Loading. Please wait.

An Unpainted Canvas tab

22 views 1 this week
no commentswrite comment
1 2 3 4 5
2 more votes to show rating
add to favorites
×
Save as Personal and add changes to this tab that will be seen only by you. Learn more ›
×
You can save this tab as Personal to edit and correct it or add notes. All changes will be seen only by you. Learn more »
launch autoscroll
font size
0
reset
how to read this tab
guitar tuner
edit
Autoscroll
slow
fast
+/-
esc
set tempo
stop
e|--------------------------------------------|
B|--------------------------------------------|
G|--------------------------------------------|
D|--------------------------------4--------1--|
A|--------------------------4-3-4---1-0-1-----|
D|-000000000000000000000000-4-3-4---1-0-1-----|
   ************************ * * *   * * *

    e|------------------------------------------------------|
    B|------------------------------------------------------|
GTR G|------------------------------------------------------|
 1  D|------------------------1------------------4-------1--| x4
    A|----0-0-0----0-0--0-0-0-1-----0-0-0--4-3-4---1-0-1----|
    D|-00-0-0-0----0-0--0-0-0-1--00-0-0-0--4-3-4---1-0-1----|
       ** * * *    * *  * * *    ** * * *  * * *   * * *

    e|------------------------------------------------------|
    B|----------8-8-8-8-8-8-8-8-8-8-8-8-8-------------------|
GTR G|----------11111111111111111111111111------------------|
 2  D|-------------------------------------------4-------1--| x4
    A|----0-0-0----------------------------4-3-4---1-0-1----|
    D|-00-0-0-0----------------------------4-3-4---1-0-1----|
       ** * * *                            * * *   * * *

    e|---------------------------------------------------------|
    B|---------------------------------------------------------|
GTR G|---------------------------------------------------------|
 1  D|----------------------8----------------------------------| x2
    A|------------------8p7---8p7---8p7----1-------------------|
    D|-0000000000000000----0-0---8p7---8p7-1-33333333-11111111-|
       ****************    * *               ******** ********

    e|---------------------------------------------------------|
    B|---------------------------------------------------------|
GTR G|---------------------------------------------------------|
 2  D|---------------------------------------------------------| x2
    A|-------------------------------------1-------------------|
    D|-00000000000000000000000000000000000-1-33333333-11111111-|
       ***********************************   ******** ********

    e|---------------------------------------------------------|
    B|---------------------------------------------------------|
GTR G|---------------------------------------------------------|
 1  D|----------------------8-------------------------1--------|
    A|------------------8p7---8p7---8p7----1----------1--------|
    D|-0000000000000000----0-0---8p7---8p7-1-33333333-1--------|
       ****************    * *               ******** 

    e|---------------------------------------------------------|
    B|---------------------------------------------------------|
GTR G|---------------------------------------------------------|
 2  D|------------------------------------------------1--------|
    A|-------------------------------------1----------1--------|
    D|-00000000000000000000000000000000000-1-33333333-1--------|
       ***********************************   ******** 

e|--------------------------------------------------------------------|
B|---------------------------------------------------6--6-6-6-6-6-6---|
G|-------2--2-2-2-2-2-3-2---5-3-2h3p2---------2--2-2-5--5-5-5-5-5---5-|
D|-------3--3-3-3-3-3-----3-----------3-------3--3-3-3--3-3-3-3-3-----| x4
A|-0--0--1--1-1-1-1-1-------------------0--0--1--1-1-3--3-3-3-3-3-----|
D|-0--0---------------------------------0--0---------3--3-3-3-3-3-----|
      *                                    *


    e|---------------------------------------------------------|
    B|---------------------------------------------------------|
GTR G|---------------------------------------------------------|
 1  D|----------------------8----------------------------------| 
    A|------------------8p7---8p7---8p7----1-------------------|
    D|-0000000000000000----0-0---8p7---8p7-1-33333333-11111111-|
       ****************    * *               ******** ********

    e|---------------------------------------------------------|
    B|---------------------------------------------------------|
GTR G|---------------------------------------------------------|
 2  D|---------------------------------------------------------| 
    A|-------------------------------------1-------------------|
    D|-00000000000000000000000000000000000-1-33333333-11111111-|
       ***********************************   ******** ********

    e|---------------------------------------------------------|
    B|---------------------------------------------------------|
GTR G|---------------------------------------------------------|
 1  D|----------------------8-------------------------1--------|
    A|------------------8p7---8p7---8p7----1----------1--------|
    D|-0000000000000000----0-0---8p7---8p7-1-33333333-1--------|
       ****************    * *               ******** 

    e|---------------------------------------------------------|
    B|---------------------------------------------------------|
GTR G|---------------------------------------------------------|
 2  D|------------------------------------------------1--------|
    A|-------------------------------------1----------1--------|
    D|-00000000000000000000000000000000000-1-33333333-1--------|
       ***********************************   ******** 

e|-----------------------------------------------------------------|
B|-----------------------------------------------------------5---5-|
G|-----------------------------------------------------------8---8-|
D|-----------------------------------------------------------------| x4
A|-0-1-0-1-0-0-000-0-1-0-1-0-0-0h1-0-1-0-1-0-0-000-0-1-0-1-0---0---|
D|-0-1-0-1-0-0-000-0-1-0-1-0-0-0h1-0-1-0-1-0-0-000-0-1-0-1-0---0---|
   *   *   * * *** *   *   * *     *   *   * * *** *   *   *   *

e|--------------------------------------------------------------------|
B|---------------------------------------------------6--6-6-6-6-6-6---|
G|-------2--2-2-2-2-2-3-2---5-3-2h3p2---------2--2-2-5--5-5-5-5-5---5-|
D|-------3--3-3-3-3-3-----3-----------3-------3--3-3-3--3-3-3-3-3-----| x4
A|-0--0--1--1-1-1-1-1-------------------0--0--1--1-1-3--3-3-3-3-3-----|
D|-0--0---------------------------------0--0---------3--3-3-3-3-3-----|
      *                                    *

e|------------0------|
B|-------6------6----|
G|-------5--------5--|
D|-------3-----------| x2
A|-0-0-0-3-----------|
D|-0-0-0-3-----------|
     * *

e|--------------|
B|--------------|
G|--------------|
D|-0------------|
A|-0-(Ring out)-|
D|-0------------|

    e|-----------------------------------5------------------------------------------------5--------------|
    B|-----6-5------6---8-6---6-----6-5----5---6------------6-5------6---8-6---6-----6-5----5---6--------|
GTR G|---5--------5---5-----5-----5----------5---5--------5--------5---5-----5-----5----------5----5-----| x2
 1  D|-0--------0---------------0------------------8----8--------8---------------8-------------------8---|
    A|-----------------------------------------------7-------------------------------------------------7-|
    D|---------------------------------------------------------------------------------------------------|

    e|-----------------------------------5------------------------------------------------5--------------|
    B|-----6-5------6---8-6---6-----6-5----5---6------------6-5------6---8-6---6-----6-5----5---6--------|
GTR G|---5--------5---5-----5-----5----------5---5--------5--------5---5-----5-----5----------5----5-----| x3
 1  D|-0--------0---------------0------------------8----8--------8---------------8-------------------8---|
    A|-----------------------------------------------7-------------------------------------------------7-|
    D|---------------------------------------------------------------------------------------------------|

    e|-0-000-00-6666-6-6-5-555-55-8888-8-8-3-333-33-5555-5-5-3-333-33-6666-6-6-|
    B|-6-666-66-6666-6-6-6-666-66-6666-6-6-6-666-66-6666-6-6-6-666-66-6666-6-6-|
GTR G|-5-555-55-5555-5-5-5-555-55-5555-5-5-5-555-55-5555-5-5-5-555-55-5555-5-5-|
 2  D|-0-000-00-0000-0-0-0-000-00-0000-0-0-3-333-33-3333-3-3-3-333-33-3333-3-3-| x3
    A|-------------------------------------------------------------------------|
    D|-------------------------------------------------------------------------|

    e|-8-----------------------0-----------------------------------------------------------------------------|
    B|-6-----------------------10----------------------------------------------------------------------------|
GTR G|-5-----------------------9-----------------------14----------------------9-----------10----9-----7-----|
 1  D|-------------------------------------------------15----------------------10----------10----10----0-----|
    A|-------------------------------------------------13----------------------12----------0-----0-----0-----|
    D|-------------------------------------------------------------------------------------------------0-----|

Ring out all chords ^

    e|-5-----5-----5-----5-----5-----5-----5-----5-----5-----5-----5-----5-----5-----5-----5-----------------|
    B|---6-----6-----6-----6-----6-----6-----6-----6-----6-----6-----6-----6-----6-----6-----6---5-6-8-------|
GTR G|-----5-----5-----5-----5-----5-----5-----5-----5-----5-----5-----5-----5-----5-----5-----7-------7-----|
 2  D|-------------------------------------------------------------------------------------------------------|
    A|-------------------------------------------------------------------------------------------------------|
    D|-------------------------------------------------------------------------------------------------------|

            
            
Suggest correction
Creating personal tab
Creating personal tab
You can edit any tab online and save it as your Personal.

You can edit, replace or remove any tab part or add personal notes – all changes will be seen only by you.

Personal tabs can be accessed anytime from any device, even offline.
Learn more »
Give kudos to tab author, rate the tab!
1 2 3 4 5
comments
print report bad tab
guest
You may want to rate the tab now too:
select rating
Wanna post a correction for this tab? Suggest correction