Oops, an error
Loading. Please wait.

As Delicate As Moth Wings Tab

37 views 3 this week
no commentswrite comment
1 2 3 4 5
3 more votes to show rating
add to favorites
launch autoscroll
font size
0
reset
how to read this tab
guitar tuner
Autoscroll
slow
fast
+/-
esc
set tempo
stop
Help us to improve Ultimate-Guitar.com Take our survey!
×
Renounced - as gentle as moth wings (First guitar only)

Drums on their own for a bit...

D|--------------|
A|--------------|
F|--------------|
C|-6--5--3--5-5-|
G|-6--5--3--5-5-|
C|-6--5--3--5-5-|

D|---------------------------|
A|------------3--------------|
F|------------6--------------|
C|-2--3--2--0---6--5--3--5-5-| x3
G|-2--3--2--0---6--5--3--5-5-| 
C|-2--3--2--0---6--5--3--5-5-|

D|-------------------------|
A|------------3------------|
F|------------6------------|
C|-2--3--2--0---6--5--3--5-|
G|-2--3--2--0---6--5--3--5-|
C|-2--3--2--0---6--5--3--5-|

D|--------------------------|
A|-----------3--------------|
F|-----------6--------------|
C|-2-3-2-------6--5--3--5-5-| x4
G|-2-3-2-0-0---6--5--3--5-5-|
C|-2-3-2-0-0---6--5--3--5-5-|
         * *

D|-------------------------------------------------------------|
A|-------------------------------------------------------------|
F|-------------------------------------------------------------|
C|-2------------2/1-----------3----2------------2/1-------1--1-| x2
G|-2--2-2-2-2-3-----2-1-0-1-2------2--2-2-2-2-3-----2-1-0-1--1-|
C|-2--2-2-2---------------------00-2--2-2-2---------------1--1-|
      * * * * *     * * * * * * **    * * * * *     * * *

D|--------------------------------------------------------------------|
A|--------------------------------------------------------------------|
F|--------------------------------------------------------------4*-4*-|
C|-0-----0---0-0-0-0-0-0-0-0-0-0-0-----------0-0-0-0-0-0-0-0-5*-------|
G|-0-0-0-0-0-6-6-6-6-6-6-6-6-6-6-6-----------4-4-4-4-4-4-4-4----------|
C|-0-0-0-0-0-----------------------000000000--------------------------|
     * *   *                       *********

D|-----------------------------------------------------------------|
A|-----------------------------------------------------------------|
F|-----------------------------------------------------------------|
C|-0-----0---0-0-0-0-0-0-0-0-0-0-0-----------0-0-0-0-0-0-0-0-0-0-0-|
G|-0-0-0-0-0-6-6-6-6-6-6-6-6-6-6-6-----------4-4-4-4-4-4-4-4-4-4-4-|
C|-0-0-0-0-0-----------------------000000000-----------------------|
     * *   *                       *********

D|-------------------------------------------------------------|
A|-------------------------------------------------------------|
F|-------------------------------------------------------------|
C|-2------------2/1-----------3----2------------2/1-------1--1-| x2
G|-2--2-2-2-2-3-----2-1-0-1-2------2--2-2-2-2-3-----2-1-0-1--1-|
C|-2--2-2-2---------------------00-2--2-2-2---------------1--1-|
      * * * * *     * * * * * * **    * * * * *     * * *

D|--------------------------------------------------------------------|
A|--------------------------------------------------------------------|
F|--------------------------------------------------------------4*-4*-|
C|-0-----0---0-0-0-0-0-0-0-0-0-0-0-----------0-0-0-0-0-0-0-0-5*-------|
G|-0-0-0-0-0-6-6-6-6-6-6-6-6-6-6-6-----------4-4-4-4-4-4-4-4----------|
C|-0-0-0-0-0-----------------------000000000--------------------------|
     * *   *                       *********

D|-----------------------------------------------------------------|
A|-----------------------------------------------------------------|
F|-----------------------------------------------------------------|
C|-0-----0---0-0-0-0-0-0-0-0-0-0-0-----------0-0-0-0-0-0-0-0-0-0-0-|
G|-0-0-0-0-0-6-6-6-6-6-6-6-6-6-6-6-----------4-4-4-4-4-4-4-4-4-4-4-|
C|-0-0-0-0-0-----------------------000000000-----------------------|
     * *   *                       *********

D|--------------------------------|
A|--------------------------------|
F|--------------------------------|
C|------------------------------1-|
G|--------------------------0-0-1-|
C|-00000-0--0--00000-00000--0-0-1-|
   ***** *  *  ***** *****  * *

D--------------------------|
A|-------------------------|
F|-------------------------|
C|-------------------------| x2
G|-------------------------|
C|-00000-0--0--00000-00000-|
   ***** *  *  ***** *****  

D|--------------------------------------------------------------------|
A|--------------------------------------------------------------------|
F|-----7-------8-------7-------8-------7-------8----------------------|
C|-5-8---8-6-9---9-5-8---8-6-9---9-5-8---8-6-9---9-(bass on It's own)-|
G|--------------------------------------------------------------------|
C|--------------------------------------------------------------------|

D|-----------------------|
A|---------7-----7----7--|
F|---------10----10---10-|
C|-----------------------| x4
G|-----------------------|
C|-00000-------0----0----|
   *****       *    *
Slowed down slightly ^^^

D|-------------------------------------------------------------------------------------------5-3-2-3-2h3p2---|
A|-3--3-3-3-3-5-5-5--3-3-3-7--7-8-77-10-8-7-7--7-7-7-3--3-3-3-3-5-5-5-3--3-3-3-----------------------------3-|
F|-4--4-4-4-4-4-4-4--4-4-4------------------9--9-9-9-4--4-4-4-4-4-4-4-4--4-4-4-------------------------------|
C|-----------------------------------------------------------------------------------------------------------|
G|-3--3-3-3-3-3-3-3--3-3-3-7--7-7-77-7--7-7-7--7-7-7-3--3-3-3-3-3-3-3-3--3-3-3-------------------------------|
C|-----------------------------------------------------------------------------2222222222222-----------------|
                                                                               *************

D|----------------------------------0------------------------------------|
A|--------------------------------3---3----------------------------------|
F|------2------2----4----4------4----------------------------------------| 1,3
C|-----------------------------------------------------------------------|
G|-3333---3333---33---33---3333------------------------------------------|
C|--------------------------------------22222222222222222222222222222222-|
                                        ********************************

D|----------------------------------0--------------------5--5-5-5-5-5-5-5-5-|
A|--------------------------------3---3------------------7--7-7-7-7-7-7-7-7-|
F|------2------2----4----4------4------------------------7--7-7-7-7-7-7-7-7-|
C|-------------------------------------------------------5--5-5-5-5-5-5-5-5-| 2
G|-3333---3333---33---33---3333--------------------------5--5-5-5-5-5-5-5-5-|
C|--------------------------------------2222222222222222--------------------|
                                        ****************

D|----------------------------------0---7-7-7-7-7-7-7-7-7-7-7-7-7-7-7-7-4--4--4--4--4--4--4-4-|
A|--------------------------------3---3-7-7-7-7-7-7-7-7-7-7-7-7-7-7-7-7-4--4--4--4--4--4--4-4-|
F|------2------2----4----4------4-------9-9-9-9-9-9-9-9-9-9-9-9-9-9-9-9-6--6--6--6--6--6--6-6-|
C|--------------------------------------9-9-9-9-9-9-9-9-9-9-9-9-9-9-9-9-6--6--6--6--6--6--6-6-| 4
G|-3333---3333---33---33---3333---------7-7-7-7-7-7-7-7-7-7-7-7-7-7-7-7-4--4--4--4--4--4--4-4-|
C|--------------------------------------------------------------------------------------------|
                              
D|------------------------------------------------------------4--------------------------7--4----------|
A|------5---9--5-------------5-----9--5-----------------4--------4-----------------4-----------4-----4-|
F|----8---8------8---8----8-----8--------8-----8-----6-----6--------6-----6-----6-----6-----------6----|
C|-9---------------9----8-------------------9-----6--------------------6-----6-------------------------| x3
G|-----------------------------------------------------------------------------------------------------|
C|-----------------------------------------------------------------------------------------------------|

Chorus pedal ^^^

D|-7--7-7-7-7-7-7-7-7-7-7-7-7-7-7----------------------|
A|-7--7-7-7-7-7-7-7-7-7-7-7-7-7-7----------------------|
F|-9--9-9-9-9-9-9-9-9-9-9-9-9-9-9----------------------|
C|-9--9-9-9-9-9-9-9-9-9-9-9-9-9-9-6---5-----------2--3-|
G|-7--7-7-7-7-7-7-7-7-7-7-7-7-7-7-6---5---3-5-3-0-2--3-|
C|--------------------------------6---5---3-5-3-0-2--3-|
                                          * * * *

D|------------------------------------------------------------------------|
A|-----------7----------7----------7------------7----------7------7----7--|
F|-----------10---------10---------10-----------10---------10-----10---10-|
C|------------------------------------------------------------------------|
G|-2-3-2-0-0----0-3-2-0----0-2-0-0----0-2-3-2-0----0-3-2-0----0-0----0----|
C|-2-3-2-0-0----0-3-2-0----0-2-0-0----0-2-3-2-0----0-3-2-0----0-0----0----|
         * *    * * * *    * * * *    * * * * *    * * * *    * *    *
Timing on this bit is very tricky ^^^

D|------------------------------------------------------------------|
A|------------------------------------------------------------------|
F|------------------------------------------------------------------|
C|------------------------------------------------------4h7p4---8---|
G|----0-0-0-0-----0-0-0--0-0-0-1-----0-0-0-0--------5-8-------0-10--|
C|-00-0-0-0-0--00-0-0-0--0-0-0-1--00-0-0-0-0-00-4-7-----------0-----|
   ** * * * *  ** * * *  * * *    ** * * * * **               *

D|-------------------------------------------------------------------------|
A|---------------------------------------------------------15----------14--|
F|------------------------------------------------------14----------13-----|
C|-77-7-7-7-7--77-7-7-7--7-7-7-8---77-7-7-7-7--77----15----------15--------|
G|-99-9-9-9-9--99-9-9-9--9-9-9-10--99-9-9-9-9--99-17----------16-----------|
C|-------------------------------------------------------------------------|

D|-----------------------------------------------------------------|
A|-----------------------------------------------------------------|
F|-----------------------------------------------------------------|
C|------------------------------------------------------4h7p4---1--| x2
G|----0-0-0-0-----0-0-0--0-0-0-1-----0-0-0-0--------5-8-------0-1--|
C|-00-0-0-0-0--00-0-0-0--0-0-0-1--00-0-0-0-0-00-4-7-----------0-1--|
   ** * * * *  ** * * *  * * *    ** * * * * **               *

D|------------|
A|------------|
F|------------|
C|------------|
G|----0-0-0-0-|
C|-00-0-0-0-0-|
   ** * * * *   
Suggest correction
Give kudos to tab author, rate the tab!
1 2 3 4 5
comments
print report bad tab
guest
You may want to rate the tab now too:
select rating
Wanna post a correction for this tab? Suggest correction