Oops, an error
Loading. Please wait.

Buried tab

46 views 1 this week
no commentswrite comment
1 2 3 4 5
2 more votes to show rating
add to favorites
×
Save as Personal and add changes to this tab that will be seen only by you. Learn more ›
×
You can save this tab as Personal to edit and correct it or add notes. All changes will be seen only by you. Learn more »
launch autoscroll
font size
0
reset
how to read this tab
guitar tuner
edit
Autoscroll
slow
fast
+/-
esc
set tempo
stop
* = Palm mute
h = hammer on
p = pull off
PH = Pinched harmonic

    D|----------------------------------|
    A|----------------------------------|
GTR F|----------------------------------|
1+2 C|-------------------------0--------|
    G|-0--0--0--0--0--0--0--0--0--------|
    C|-1--0--2--0--2--1--0--1--0--------|
       *  *  *  *  *  *  *  *

    D|---------------------------------------------|
    A|---------------------------------------------|
GTR F|---------------------------------------------|
 1  C|---------------------------------------------|
    G|-0---------0-----------000---------0---------|
    C|-0---------0-----------000---------0---------|
       1 + 2 + 3 + 4 + 1 + 2 + 3 + 4 + 1 + 2 + 3 + 

Watch the timing on this bit ^ The first two bars are in 4/4 and the third is in 3/4. All palm muted.

    D|----------------------------------------------|
    A|-15--15--15--15--15--15--15--15--15--15--15---|
GTR F|---18--18--18--18--18--18--18--18--18--18--18-|
 2  C|----------------------------------------------|
    G|----------------------------------------------|
    C|----------------------------------------------|

    D|---------------------------------------------|
    A|---------------------------------------------|
GTR F|---------------------------------------------|
 1  C|---------------------------------------------| x2
    G|-0---------0-----------000---------0---------|
    C|-0---------0-----------000---------0---------|
       1 + 2 + 3 + 4 + 1 + 2 + 3 + 4 + 1 + 2 + 3 + 

    D|----------------------------------------------|
    A|-17----17----17----17----17----17----17----17-|
GTR F|----20----20----20----20----20----20----20----|
 2  C|----------------------------------------------| x2
    G|----------------------------------------------|
    C|----------------------------------------------|

    D|---------------------------------------------|
    A|---------------------------------------------|
GTR F|---------------------------------------------|
 1  C|---------------------------------------------| x2
    G|-0---------0-----------000---------0---------|
    C|-0---------0-----------000---------0---------|
       1 + 2 + 3 + 4 + 1 + 2 + 3 + 4 + 1 + 2 + 3 + 

    D|----------------------------------------------|
    A|-19----19----19----19----19----19----19----19-|
GTR F|----22----22----22----22----22----22----22----|
 2  C|----------------------------------------------| x2
    G|----------------------------------------------|
    C|----------------------------------------------|

The last four bars have a half time feel, but you still count it the same. Still palm muted, but they are 
rung out mutes.

    D|----------------------------------------------------------------|
    A|----------------------------------------------------------------|
GTR F|-2---------------------------0--2-----------------5-3-2-2h3p2---|
 1  C|-------3-----2-----------2-3----------3-----2-----------------3-|
    G|-------------------3--------------------------------------------|
    C|---0-0---0-0---0-0---0-0----------0-0---0-0---0-0---------------|
         * *   * *   * *   * *          * *   * *   * *

    D|--------------------------------------------------------------|
    A|--------------------------------------------------------------|
GTR F|-2---------------------------0--2---------------5/7-7-7-7/9-9-|
 1  C|-------3-----2-----------2-3----------3-----2-----------------|
    G|-------------------3------------------------------------------|
    C|---1-1---1-1---1-1---1-1----------1-1---1-1---1---------------|
         * *   * *   * *   * *          * *   * *   *

    D|-----------------------------------------------------------------|
    A|---------------------------------3-3-3-3-3-3-3-3-3-3-3-3-3-3-3-3-|
GTR F|---------------------------------3-3-3-3-3-3-3-3-3-3-3-3-3-3-3-3-|
 2  C|-1-1-1-1-1-1-1-1-1-1-1-1-1-1-1-1-1-1-1-1-1-1-1-1-1-1-1-1-1-1-1-1-|
    G|-1-1-1-1-1-1-1-1-1-1-1-1-1-1-1-1-1-1-1-1-1-1-1-1-1-1-1-1-1-1-1-1-|
    C|-1-1-1-1-1-1-1-1-1-1-1-1-1-1-1-1-1-1-1-1-1-1-1-1-1-1-1-1-1-1-1-1-|

    D|----------------------------------------------------------------|
    A|----------------------------------------------------------------|
GTR F|-2---------------------------0--2-----------------5-3-2-2h3p2---|
 1  C|-------3-----2-----------2-3----------3-----2-----------------3-|
    G|-------------------3--------------------------------------------|
    C|---0-0---0-0---0-0---0-0----------0-0---0-0---0-0---------------|
         * *   * *   * *   * *          * *   * *   * *

    D|-----------------------------------------------------------------|
    A|-----------------------------------------------------------------|
GTR F|-----------------------------------------------------------------|
 2  C|-----------------------------------------------------------------|
    G|-0-0-0-0-0-0-0-0-0-0-0-0-0-0-0-0-0-0-0-0-0-0-0-0-0-0-0-0-0-0-0-0-|
    C|-0-0-0-0-0-0-0-0-0-0-0-0-0-0-0-0-0-0-0-0-0-0-0-0-0-0-0-0-0-0-0-0-|
       * * * * * * * * * * * * * * * * * * * * * * * * * * * * * * * *

    D|--------------------------------------------------------------|
    A|--------------------------------------------------------------|
GTR F|-2---------------------------0--2---------------5/7-7-7-7/9-9-|
 1  C|-------3-----2-----------2-3----------3-----2-----------------|
    G|-------------------3------------------------------------------|
    C|---1-1---1-1---1-1---1-1----------1-1---1-1---1---------------|
         * *   * *   * *   * *          * *   * *   *

    D|-----------------------------------------------------------------|
    A|---------------------------------3-3-3-3-3-3-3-3-3-3-3-3-3-3-3-3-|
GTR F|---------------------------------3-3-3-3-3-3-3-3-3-3-3-3-3-3-3-3-|
 2  C|-1-1-1-1-1-1-1-1-1-1-1-1-1-1-1-1-1-1-1-1-1-1-1-1-1-1-1-1-1-1-1-1-|
    G|-1-1-1-1-1-1-1-1-1-1-1-1-1-1-1-1-1-1-1-1-1-1-1-1-1-1-1-1-1-1-1-1-|
    C|-1-1-1-1-1-1-1-1-1-1-1-1-1-1-1-1-1-1-1-1-1-1-1-1-1-1-1-1-1-1-1-1-|

    D|------------------------------------------------------------------------|
    A|------------------------------------------------------------------------|
GTR F|-10-----9-----7-----9-----9h10p9-7----7-----9-----10-----9-----10/12-12-|
 1  C|-----------------------------------10-----------------------------------|
    G|------------------------------------------------------------------------|
    C|----0-0---0-0---0-0---0-0---------------0-0---0-0----0-0---0-0----------|
          * *   * *   * *   * *               * *   * *    * *   * * 

    D|-------------------------------------------------------------------------|
    A|-------------------------------------------------------------------------|
GTR F|-7-7-7-7-7-7-7-7-7-7-7-7-7-7-7-7-7-7-7-5-5-5-5-5-5-5-5-5-5-5-5-5-5-5-5-5-|
 2  C|-5-5-5-5-5-5-5-5-5-5-5-5-5-5-5-5-5-5-5-3-3-3-3-3-3-3-3-3-3-3-3-3-3-3-3-3-|
    G|-5-5-5-5-5-5-5-5-5-5-5-5-5-5-5-5-5-5-5-3-3-3-3-3-3-3-3-3-3-3-3-3-3-3-3-3-|
    C|-5-5-5-5-5-5-5-5-5-5-5-5-5-5-5-5-5-5-5-3-3-3-3-3-3-3-3-3-3-3-3-3-3-3-3-3-|

    D|-------------------------------------------------------------|
    A|---------------------------------3-3-3-3-3-3-3-3-3-3-3-3-3-3-|
GTR F|---------------------------------3-3-3-3-3-3-3-3-3-3-3-3-3-3-|
 1  C|-1-1-1-1-1-1-1-1-1-1-1-1-1-1-1-1-1-1-1-1-1-1-1-1-1-1-1-1-1-1-|
    G|-1-1-1-1-1-1-1-1-1-1-1-1-1-1-1-1-1-1-1-1-1-1-1-1-1-1-1-1-1-1-|
    C|-1-1-1-1-1-1-1-1-1-1-1-1-1-1-1-1-1-1-1-1-1-1-1-1-1-1-1-1-1-1-|

    D|-------------------------------------------------------------------------------------------|
    A|-------------------------------------------------------------------------------------------|
    F|-12-12-12-12-12-12-12-12-12-12-12-12-12-12-12-12-14-14-14-14-14-14-14-14-14-14-14-14-14-14-|
    C|-------------------------------------------------------------------------------------------|
    G|-10-10-10-10-10-10-10-10-10-10-10-10-10-10-10-10-12-12-12-12-12-12-12-12-12-12-12-12-12-12-|
    C|-------------------------------------------------------------------------------------------|

Note that the final bar is in 3/4.

    D|----------------------------------------------------------|
    A|----------------------------------------------------------|
GTR F|----------------------------------------------------------| 1,3
1+2 C|-1--0---0-----3--1---1-----3--0---0-----3-----------------|
    G|-1--0-0-0-0-0-3--1-1-1-1-1-3--0-0-0-0-0-3-0-1-0-1-4--1--3-|
    C|-1--0-0-0-0-0-3--1-1-1-1-1-3--0-0-0-0-0-3-0-1-0-1-4--1--3-|
            *   * *      *   * *      *   * *   * * * * *  *  *

    D|-----------------------------------------------------|
    A|-----------------------------------------------------|
GTR F|-----------------------------------------------------| 2
1+2 C|-0---0-----3--1---1-----3--0---0---------------------|
    G|-0-0-0-0-0-3--1-1-1-1-1-3--0-0-0-0-0-0-0-0-0-0-0-0-0-|
    C|-0-0-0-0-0-3--1-1-1-1-1-3--0-0-0-0-0-0-0-0-0-0-0-0-0-|
         *   * *      *   * *      *   * * * * * * * * * *

    D|-----------------------------------------------------|
    A|-------------------------------------5-(ring out)----|
GTR F|-------------------------------------8---------------| 4
1+2 C|-0---0-----3--1---1-----3--0---0---------------------|
    G|-0-0-0-0-0-3--1-1-1-1-1-3--0-0-0-0-0-----------------|
    C|-0-0-0-0-0-3--1-1-1-1-1-3--0-0-0-0-0-----------------|
         *   * *      *   * *      *   * * 

    D|-----------------------------------------------------|
    A|-----------------------------------------------------|
GTR F|-----------------------------------------------------| 4
 2 C|-0---0-----3--1---1-----3--0---0----------------------|
    G|-0-0-0-0-0-3--1-1-1-1-1-3--0-0-0-0-0-0-0-0-0-0-0-0-0-|
    C|-0-0-0-0-0-3--1-1-1-1-1-3--0-0-0-0-0-0-0-0-0-0-0-0-0-|
         *   * *      *   * *      *   * * * * * * * * * *

    D|----------------------------------------------------------------|
    A|----------------------------------------------------------------|
GTR F|-2---------------------------0--2-----------------5-3-2-2h3p2---|
 1  C|-------3-----2-----------2-3----------3-----2-----------------3-|
    G|-------------------3--------------------------------------------|
    C|---0-0---0-0---0-0---0-0----------0-0---0-0---0-0---------------|
         * *   * *   * *   * *          * *   * *   * *

    D|--------------------------------------------------------------|
    A|--------------------------------------------------------------|
GTR F|-2---------------------------0--2---------------5/7-7-7-7/9-9-|
 1  C|-------3-----2-----------2-3----------3-----2-----------------|
    G|-------------------3------------------------------------------|
    C|---1-1---1-1---1-1---1-1----------1-1---1-1---1---------------|
         * *   * *   * *   * *          * *   * *   *

    D|-----------------------------------------------------------------|
    A|---------------------------------3-3-3-3-3-3-3-3-3-3-3-3-3-3-3-3-|
GTR F|---------------------------------3-3-3-3-3-3-3-3-3-3-3-3-3-3-3-3-|
 2  C|-1-1-1-1-1-1-1-1-1-1-1-1-1-1-1-1-1-1-1-1-1-1-1-1-1-1-1-1-1-1-1-1-|
    G|-1-1-1-1-1-1-1-1-1-1-1-1-1-1-1-1-1-1-1-1-1-1-1-1-1-1-1-1-1-1-1-1-|
    C|-1-1-1-1-1-1-1-1-1-1-1-1-1-1-1-1-1-1-1-1-1-1-1-1-1-1-1-1-1-1-1-1-|

    D|----------------------------------------------------------------|
    A|----------------------------------------------------------------|
GTR F|-2---------------------------0--2-----------------5-3-2-2h3p2---|
 1  C|-------3-----2-----------2-3----------3-----2-----------------3-|
    G|-------------------3--------------------------------------------|
    C|---0-0---0-0---0-0---0-0----------0-0---0-0---0-0---------------|
         * *   * *   * *   * *          * *   * *   * *

    D|-----------------------------------------------------------------|
    A|-----------------------------------------------------------------|
GTR F|-----------------------------------------------------------------|
 2  C|-----------------------------------------------------------------|
    G|-0-0-0-0-0-0-0-0-0-0-0-0-0-0-0-0-0-0-0-0-0-0-0-0-0-0-0-0-0-0-0-0-|
    C|-0-0-0-0-0-0-0-0-0-0-0-0-0-0-0-0-0-0-0-0-0-0-0-0-0-0-0-0-0-0-0-0-|
       * * * * * * * * * * * * * * * * * * * * * * * * * * * * * * * *

    D|--------------------------------------------------------------|
    A|--------------------------------------------------------------|
GTR F|-2---------------------------0--2---------------5/7-7-7-7/9-9-|
 1  C|-------3-----2-----------2-3----------3-----2-----------------|
    G|-------------------3------------------------------------------|
    C|---1-1---1-1---1-1---1-1----------1-1---1-1---1---------------|
         * *   * *   * *   * *          * *   * *   *

    D|-----------------------------------------------------------------|
    A|---------------------------------3-3-3-3-3-3-3-3-3-3-3-3-3-3-3-3-|
GTR F|---------------------------------3-3-3-3-3-3-3-3-3-3-3-3-3-3-3-3-|
 2  C|-1-1-1-1-1-1-1-1-1-1-1-1-1-1-1-1-1-1-1-1-1-1-1-1-1-1-1-1-1-1-1-1-|
    G|-1-1-1-1-1-1-1-1-1-1-1-1-1-1-1-1-1-1-1-1-1-1-1-1-1-1-1-1-1-1-1-1-|
    C|-1-1-1-1-1-1-1-1-1-1-1-1-1-1-1-1-1-1-1-1-1-1-1-1-1-1-1-1-1-1-1-1-|

    D|------------------------------------------------------------------------|
    A|------------------------------------------------------------------------|
GTR F|-10-----9-----7-----9-----9h10p9-7----7-----9-----10-----9-----10/12-12-|
 1  C|-----------------------------------10-----------------------------------|
    G|------------------------------------------------------------------------|
    C|----0-0---0-0---0-0---0-0---------------0-0---0-0----0-0---0-0----------|
          * *   * *   * *   * *               * *   * *    * *   * * 

    D|-------------------------------------------------------------------------|
    A|-------------------------------------------------------------------------|
GTR F|-7-7-7-7-7-7-7-7-7-7-7-7-7-7-7-7-7-7-7-5-5-5-5-5-5-5-5-5-5-5-5-5-5-5-5-5-|
 2  C|-5-5-5-5-5-5-5-5-5-5-5-5-5-5-5-5-5-5-5-3-3-3-3-3-3-3-3-3-3-3-3-3-3-3-3-3-|
    G|-5-5-5-5-5-5-5-5-5-5-5-5-5-5-5-5-5-5-5-3-3-3-3-3-3-3-3-3-3-3-3-3-3-3-3-3-|
    C|-5-5-5-5-5-5-5-5-5-5-5-5-5-5-5-5-5-5-5-3-3-3-3-3-3-3-3-3-3-3-3-3-3-3-3-3-|

    D|-------------------------------------------------------------|
    A|---------------------------------3-3-3-3-3-3-3-3-3-3-3-3-3-3-|
GTR F|---------------------------------3-3-3-3-3-3-3-3-3-3-3-3-3-3-|
 1  C|-1-1-1-1-1-1-1-1-1-1-1-1-1-1-1-1-1-1-1-1-1-1-1-1-1-1-1-1-1-1-|
    G|-1-1-1-1-1-1-1-1-1-1-1-1-1-1-1-1-1-1-1-1-1-1-1-1-1-1-1-1-1-1-|
    C|-1-1-1-1-1-1-1-1-1-1-1-1-1-1-1-1-1-1-1-1-1-1-1-1-1-1-1-1-1-1-|

    D|-------------------------------------------------------------------------------------------|
    A|-------------------------------------------------------------------------------------------|
    F|-12-12-12-12-12-12-12-12-12-12-12-12-12-12-12-12-14-14-14-14-14-14-14-14-14-14-14-14-14-14-|
    C|-------------------------------------------------------------------------------------------|
    G|-10-10-10-10-10-10-10-10-10-10-10-10-10-10-10-10-12-12-12-12-12-12-12-12-12-12-12-12-12-12-|
    C|-------------------------------------------------------------------------------------------|

Note that the final bar is in 3/4.

    D|-----------------|
    A|-----------------|
GTR F|-----------------|
1+2 C|-----------------|
    G|-----------------|
    C|-1-0-3-0-4-0-3-0-|


    D|-----------------------------------------------------------------|
    A|-----------------------------------------------------------------|
GTR F|-----------------------------------------------------------------|
1+2 C|-----------------------------------------------------------------| x2
    G|-------------0-0-------------0-0-------------0-0-----------------|
    C|-000-000-----0-0-000-000-----0-0-000-000-----0-0-1-0-3-0-4-0-3-0-|
       *** ***     * * *** ***     * * *** ***     * *

    D|-----------------------------------------------------------------|
    A|-----------------------------------------------------------------|
GTR F|-----------------------------------------------------------------|
 1  C|-----------------------------------------------------------------| x2
    G|-------------0-0-------------0-0-------------0-0-----------------|
    C|-000-000-----0-0-000-000-----0-0-000-000-----0-0-1-0-3-0-4-0-3-0-|
       *** ***     * * *** ***     * * *** ***     * *

    D|--------------------------------------------------------------|
    A|---------15-------------15-------------15---------------------|
GTR F|---------18-------------18-------------18---------------------|
 2  C|--------------------------------------------------------------| x2
    G|------------0-0------------0-0------------0-0-----------------|
    C|-000-000----0-0-000-000----0-0-000-000----0-0-1-0-3-0-4-0-3-0-|
       *** ***    * * *** ***    * * *** ***    * *

    D|-----------------------------------|
    A|-----------------------------------|
GTR F|-----------------------------------|
 1  C|-0--1p0-3p0-4p0-3p0-1p0-3p0--------| 1
    G|-0---------------------------0-0-0-|
    C|-0---------------------------0-0-0-|
                                   * * *

    D|--------------------------------|
    A|--------------------------------|
GTR F|--------------------------------|
 1  C|-1p0-3p0-4p0-3p0-1p0-3p0--------| 2,3
    G|--------------------------0-0-0-|
    C|--------------------------0-0-0-|
                                * * *

    D|---------------------------|
    A|---------------------------|
GTR F|---------------------------|
 1  C|-1p0-3p0-4p0-3p0-1p0-3PH---| 4
    G|---------------------------|
    C|---------------------------|

Gradually decrease tempo in this bit ^

    D|-----------------------------------------------------------------|
    A|-----------------------------------------------------------------|
GTR F|-----------------------------------------------------------------|
1+2 C|-----------------------------------------------------------------| x2
    G|-------------0-0-------------0-0-------------0-0-----------------|
    C|-000-000-----0-0-000-000-----0-0-000-000-----0-0-1-0-3-0-4-0-3-0-|
       *** ***     * * *** ***     * * *** ***     * *

    D|-----------------------------------------------------------------|
    A|-----------------------------------------------------------------|
GTR F|-----------------------------------------------------------------|
 1  C|-----------------------------------------------------------------| x2
    G|-------------0-0-------------0-0-------------0-0-----------------|
    C|-000-000-----0-0-000-000-----0-0-000-000-----0-0-1-0-3-0-4-0-3-0-|
       *** ***     * * *** ***     * * *** ***     * *

    D|--------------------------------------------------------------|
    A|---------15-------------15-------------15---------------------|
GTR F|---------18-------------18-------------18---------------------|
 2  C|--------------------------------------------------------------| x2
    G|------------0-0------------0-0------------0-0-----------------|
    C|-000-000----0-0-000-000----0-0-000-000----0-0-1-0-3-0-4-0-3-0-|
       *** ***    * * *** ***    * * *** ***    * *

    D|--------------|
    A|--------------|
GTR F|--------------|
1+2 C|-0------------|
    G|-0-(Ring out)-|
    C|-0------------|

Suggest correction
Creating personal tab
Creating personal tab
You can edit any tab online and save it as your Personal.

You can edit, replace or remove any tab part or add personal notes – all changes will be seen only by you.

Personal tabs can be accessed anytime from any device, even offline.
Learn more »
Give kudos to tab author, rate the tab!
1 2 3 4 5
comments
print report bad tab
guest
You may want to rate the tab now too:
select rating
Wanna post a correction for this tab? Suggest correction