Oops, an error
Loading. Please wait.

Heart Beats Cold Chords

40 views 3 this week
no commentswrite comment
1 2 3 4 5
3 more votes to show rating
add to favorites
launch autoscroll
font size
0
reset
transpose
0
reset
display chords
guitar tuner
Autoscroll
slow
fast
+/-
esc
set tempo
stop
Help us to improve Ultimate-Guitar.com Take our survey!
×
Author
Difficulty
Tuning
intermediate
C G C F A D
Renounced - heart beats cold (First guitar only)

Guitar 2 plays his riff once on his own

d|-13-------13-------13-------13-------13----------15-------13-------17-------15-------13----15----|
A|----15-------15-------15-------15-------15----15----15-------15-------15-------15-------15----15-|
F|-------14-------14-------14-------14-------14----------14-------14-------14-------14-------------|
C|-------------------------------------------------------------------------------------------------|
G|-------------------------------------------------------------------------------------------------|
C|-------------------------------------------------------------------------------------------------|

d|-12-------12-------12-------12-------12----------13-------12-------15-------13-------12----------|
A|----15-------15-------15-------15-------15----15----15-------15-------15-------15-------15----15-|
F|-------14-------14-------14-------14-------14----------14-------14-------14-------14-------14----|
C|-------------------------------------------------------------------------------------------------|
G|-------------------------------------------------------------------------------------------------|
C|-------------------------------------------------------------------------------------------------|

d|-13-------13-------13-------13-------13----------15-------13-------17-------15-------13----15----|
A|----15-------15-------15-------15-------15----15----15-------15-------15-------15-------15----15-|
F|-------14-------14-------14-------14-------14----------14-------14-------14-------14-------------|
C|-------------------------------------------------------------------------------------------------|
G|-------------------------------------------------------------------------------------------------|
C|-------------------------------------------------------------------------------------------------|

d|-12-------12-------12-------12-------12----------12-------12-------12-------12-------|
A|----15-------15-------15-------15-------15----14----15-------15-------15-------15----|
F|-------14-------14-------14-------14-------14----------14-------14-------14-------14-|
C|-------------------------------------------------------------------------------------|
G|-------------------------------------------------------------------------------------|
C|-------------------------------------------------------------------------------------|

d|---------------------------------------------------------------------8--6--5-|
A|-----------------------------------------------------------------------------|
F|---------7--7--7--7--7--7--7--7--7------------------7--7--7--7--7--7---------|
C|-5--7--0-5--5--5--5--5--5--5--5--5-5--7--0-5--5--5--5--5--5--5--5--5---------|
G|-5--7--0-6--6--6--6--6--6--6--6--6-5--7--0-6--6--6--6--6--6--6--6--6---------|
C|-5--7--0---------------------------5--7--0-6--6--6--6--6--6--6--6--6---------|

d|----------------------------------------------------------------|
A|----------------------------------------------------------------|
F|----------------------------------------------------------------|
C|----------------------------------------------------------------|
G|-5--5--5--5--555555-5--5--5--55--5--5--5--5--555555-5--5--5--55-|
C|-5--5--5--5--555555-5--5--5--55--5--5--5--5--555555-5--5--5--55-|
   *  *  *  *  ****** *  *  *  **  *  *  *  *  ****** *  *  *  **

d|------------------------------------------------------------------------------------|
A|------------------------------------------------------------------------------------|
F|-7--7--7--7--7--7--7--7--7--7--7--7--17--17--17--17--17--17-19--19--19--20--20--20--|
C|-5--5--5--5--5--5--5--5--5--5--5--5-------------------------------------------------|
G|-6--6--6--6--6--6--6--6--6--6--6--6--15--15--15--15--15--15-17--17--17--18--18--18--|
C|------------------------------------------------------------------------------------|

d|----------------------------------------------------------------|
A|----------------------------------------------------------------|
F|----------------------------------------------------------------|
C|----------------------------------------------------------------|
G|-5--5--5--5--555555-5--5--5--55--5--5--5--5--555555-5--5--5--55-|
C|-5--5--5--5--555555-5--5--5--55--5--5--5--5--555555-5--5--5--55-|
   *  *  *  *  ****** *  *  *  **  *  *  *  *  ****** *  *  *  **

d|--------------------------|
A|--------------------------|
F|------------------------7-|
C|-6-5-0-8-6-0-6-5-0------6-|
G|-6-5-0-8-6-0-6-5-0------5-|
C|-6-5-0-8-6-0-6-5-0-0000---|
               ****

d|---------------------------------|
A|---------------------------------|
F|---------------------------------|
C|-1--1-0---------1--1-0-----------| x8
G|-1--1-0---------1--1-0-32--1p0---|
C|-1--1-0--000000-1––1-0——-43—-—13-|
           ******        ***** ***

d|-------------------------------------------------------------------------------------------|
A|-------------------------------------------------------------------------------------------|
F|-------------------------------------------------------------------------------------------|
C|-1--1-0----1--1-0------1--1-0----1--1-0------1--1-0----1--1-0------1--1-0----1--1-0--------| x2
G|-1--1-0----1--1-0------1--1-0----1--1-0------1--1-0----1--1-0------1--1-0----1--1-0-0-0--0-|
C|-1--1-0-00-1--1-0-0000-1--1-0-00-1--1-0-0000-1--1-0-00-1--1-0-0000-1--1-0-00-1--1-0-0-0--0-|
          **        ****        **        ****        **        ****        **        * *  *

Pay careful attention to the timing on this bit ^^^

d|----------- x4 -|--------- x4 -|
A|----8----8------|----6---6-----|
F|------10---10---|------9---9---|
C|--------------0-|------------7-|
G|----------------|--------------|
C|-0-(Let ring)---|-0-(Let ring)-|

Chorus pedal ^^^

d|----------- x4 -|--------- x4 -|
A|---8----8-------|---6---6------|
F|-----10---10----|-----9---9----|
C|-------------10-|-----------7--| x2
G|----------------|--------------|
C|-8-(Let ring)---|-0-(Let ring)-|

Chorus pedal cont...^^^

d|---------------------------------------------------------------------------------------------------------|
A|---------------------------------------------------------------------------------------------------------|
F|-4--4-4-4-4-5--5-5-5-5-5--5-5-5-5-7--7-7-7-7-7--7-7-7-7-5--5-5-5-5-5--5-5-5-5-9--9-9-9-9-10--10-10-10-10-|
C|-2--2-2-2-2----------------------------------------------------------------------------------------------|
G|-2--2-2-2-2-3--3-3-3-3-3--3-3-3-3-5--5-5-5-5-5--5-5-5-5-3--3-3-3-3-3--3-3-3-3-7--7-7-7-7-8---8--8--8--8--|
C|-2--2-2-2-2----------------------------------------------------------------------------------------------|

d|----------------------------------------------------------------------------------------------8--------|
A|-----------------------------------------------------------------------------------------6-------6-----|
F|-12--12-12-12-12-12--12-12-12-12\10-10-10-10-10--10-10-10-10-9--9-9-9-9-9--9-9-9-9----9-----9-------9--|
C|-----------------------------------------------------------------------------------7-------------------|
G|-10--10-10-10-10-10--10-10-10-10\8--8--8--8--8---8--8--8--8--7--7-7-7-7-7--7-7-7-7---------------------|
C|——————————————————————————————————————————————————————————————————————————————————————————————————-————|

d|----------------------------------------------------------------------------------------------------------|
A|----------------------------------------------------------------------------------------------------------|
F|-16-16161616-17-1717171717-1717171717-1717171717-17171717-19-19191919-17-17171717-16-16161616-14-14141414-|
C|----------------------------------------------------------------------------------------------------------|
G|-14-14141414-15-1515151515-1515151515-1515151515-15151515-17-17171717-15-15151515-14-14141414-12-12121212-|
C|----------------------------------------------------------------------------------------------------------|

These aren't played faster, they are just bunched together for space issues ^^^

d|------------------------------------------------------------------------------------------------|
A|-----------------------------------------------------------------------12-10-------------8------|
F|-12--12-12-12-12-12--12-12-12-12-12-10-10-10-10--10-10-10-10------9----------9------9------9----|
C|---------------------------------------------------------------10---10-----------10---10-----10-|
G|-10--10-10-10-10-10--10-10-10-10-10-10-10-10-10--10-10-10-10-8----------------------------------|
C|-------------------------------------------------------------------------------7----------------|

d|-----------------------------------------------------------------------------------------------------------|
A|-----------------------------------------------------------------------------------------------------------|
F|-4--4-4-4-5-5-5-5-5-5--5-5-5-5-7--7-7-7-7-7--7-7-7-7-9--9-9-9-9-9--9-9-9-9-12--12-12-12-12-10--10-10-10-10-|
C|-2--2-2-2--------------------------------------------------------------------------------------------------|
G|-2--2-2-2-3-3-3-3-3-3--3-3-3-3-5--5-5-5-5-5--5-5-5-5-7--7-7-7-7-7--7-7-7-7-10--10-10-10-10--8--8--8--8--8--|
C|-2--2-2-2--------------------------------------------------------------------------------------------------|

d|---------- x6 --|-------------------------------|
A|----------------|-------------------------------|
F|-10p9------12p9-|-10p9-10p9-12p9-14p9-12p9-10p9-|
C|------10p9------|-------------------------------|
G|----------------|-------------------------------|
C|----------------|-------------------------------|

d|-------------------------------------------------------------------------------------------|
A|-------------------------------------------------------------------------------------------|
F|-10---999999999999999999999999-10p9-12p9-10p9-12p9-10p9-12p9-14p9-12p9-10p9-12p9-10p9-10p9-|
C|-------------------------------------------------------------------------------------------|
G|-------------------------------------------------------------------------------------------|
C|-------------------------------------------------------------------------------------------|

d|-------------------------------------------------------------------------------------------------------|
A|-------------------------------------------------------------------------------------------------------|
F|-10--9--------12-/14-14-12----------14--12--9------10--9---------12-/14-14--12----------14--17--16--14-|
C|--------10--9---------------14--15-------------10---------10--9-----------------14--15-----------------|
G|-------------------------------------------------------------------------------------------------------|
C|-------------------------------------------------------------------------------------------------------|

d|----------|----------|
A|-12-------|-15-------|
F|----15-15-|----18-18-|
C|----------|----------| x3
G|----------|----------|
C|--- x8 ---|--- x4 ---|

Guitar 2 on his own for a bit

d|-18-18--18-18--18-18--18-18-18-18----18----|
A|-22-22--22-22--22-22--22-22-22----22----22-|
F|-------------------------------------------|
C|-------------------------------------------| x4
G|-------------------------------------------|
C|-------------------------------------------|
Suggest correction
Give kudos to tab author, rate the tab!
1 2 3 4 5
comments
print report bad tab
guest
You may want to rate the tab now too:
select rating
Wanna post a correction for this tab? Suggest correction