Oops, an error
Loading. Please wait.

How Heavy The Downpour tab

121 views 3 this week
no commentswrite comment
1 2 3 4 5
2 more votes to show rating
add to favorites
×
Save as Personal and add changes to this tab that will be seen only by you. Learn more ›
×
You can save this tab as Personal to edit and correct it or add notes. All changes will be seen only by you. Learn more »
launch autoscroll
font size
0
reset
how to read this tab
guitar tuner
edit
Autoscroll
slow
fast
+/-
esc
set tempo
stop
e|--------------------------------------------------|
B|--------------------------------------------------|
G|-----7-----7-----7-------------7-----7-----7------|
D|-----6-----6-----6-------------6-----6-----6-6--1-| x2
A|-----5-----5-----5-------------5-----5-----5-6--1-|
D|-000---000---000---0-1-3-1-000---000---000---6--1-|
   ***   ***   ***           ***   ***   ***

e|------------------------------------------------|
B|------------------------------------------------|
G|------------------------------------------------|
D|-0h1-0-0-0h1--0-0-0h1-0-0h1-0-0-0h1-0-0-1-0-----| x4
A|-0h1-0-0-0h1--0-0-0h1-0-0h1-0-0-0h1-0-0---------|
D|-0h1-0-0-0h1--0-0-0h1-0-0h1-0-0-0h1-0-0-----2-1-|


e|-------------------------------------------------------------------|
B|-------------------------------------------------------------------|
G|-------------------------------------------------------------------|
D|---------------7/8---7-------------------------10\8----------------| x4
A|-0-0-0-0-0-0-0-5/6-0-5-0-0-8888--0-0-0-0-0-0-0-8-\6-0--------------|
D|-0-0-0-0-0-0-0-----0---0-0-------0-0-0-0-0-0-0------0-11-4444-1111-|
     * * * * * *     *   * *         * * * * * *      *

e|-----------------------------------------------------------------|
B|------------------------------------------------------------5----|
G|---------------------------------------------------------8-----8-|
D|-----------------------------------------------------------------| x4
A|-0-1-0-2p1-0-1-0-1p0-0-0-000-0-0-0-1-0-2p1-0-1-0-1p0-------------|
D|-0-1-0-2p1-0-1-0-1p0-0-0-000-0-0-0-1-0-2p1-0-1-0-1p0-000---------|
   *   *     *   *     * * *** * * *   *     *   *     ***

e|-------------------------------------------------------------------|
B|-------------------------------------------------------------------|
G|-------------------------------------------------------------------|
D|---------------7/8---7-------------------------10\8----------------| x2
A|-0-0-0-0-0-0-0-5/6-0-5-0-0-8888--0-0-0-0-0-0-0-8-\6-0--------------|
D|-0-0-0-0-0-0-0-----0---0-0-------0-0-0-0-0-0-0------0-11-4444-1111-|
     * * * * * *     *   * *         * * * * * *      *

e|-----------------------------------------------------------------|
B|------------------------------------------------------------5----|
G|---------------------------------------------------------8-----8-|
D|-----------------------------------------------------------------| x4
A|-0-1-0-2p1-0-1-0-1p0-000-0-0-000-0-1-0-2p1-0-1-0-1p0-------------|
D|-0-1-0-2p1-0-1-0-1p0-000-0-0-000-0-1-0-2p1-0-1-0-1p0-000---------|
   *   *     *   *     *** * * *** *   *     *   *     ***

Note the slight change in rhythm ^^^

e|--------------|
B|--------------|
G|--------------|
D|-1------------|
A|-1-(Ring out)-|
D|-1------------|

e|--------------------------------------------------------|
B|--------------------5-5-5-5-----------------------------|
G|--------------------8-8-8-8---------------7-6---6-5---5-|
D|----------------------------------------------8-----7---| 
A|-0-0-0--0-0--0--0-0---------0-0-0--0-0--0---------------|
D|-0-0-0--0-0--0--0-0---------0-0-0--0-0--0---------------|
   * * *  * *  *  * *         * * *  * *  *

e|--------------------------------------------------------|
B|--------------------5-5-5-5-----------------------------|
G|--------------------8-8-8-8-----------------------------|
D|--------------------------------------------------------| 
A|-0-0-0--0-0--0--0-0---------0-0-0--0-0--0-0--0--3--1----|
D|-0-0-0--0-0--0--0-0---------0-0-0--0-0--0-1--0--3--1----|
   * * *  * *  *  * *         * * *  * *  * *  *  *  *

e|--------------------------------------------------------|
B|--------------------5-5-5-5-----------------------------|
G|--------------------8-8-8-8---------------7-6---6-5---5-|
D|----------------------------------------------8-----7---| x2
A|-0-0-0--0-0--0--0-0---------0-0-0--0-0--0---------------|
D|-0-0-0--0-0--0--0-0---------0-0-0--0-0--0---------------|
   * * *  * *  *  * *         * * *  * *  *

Slowed down slightly ^^^

e|---------------------------------------------------------------------------|
B|---------------------------------------------------------------------------|
G|-7--7-7-7-7-7-7-7-9-9-9-9-9-9-9-9-9--9-9-9-9-9-9-9-10-10-10-10-10-10-10-10-|
D|------------------7-7-7-7-7-7-7-7-5--5-5-5-5-5-5-5-7--7--7--7--7--7--7--7--| x2
A|-5--5-5-5-5-5-5-5-8-8-8-8-8-8-8-8-7--7-7-7-7-7-7-7-8--8--8--8--8--8--8--8--|
D|---------------------------------------------------------------------------|

e|----------------------------------------------------------------------|
B|----------------------------------------------------------------------|
G|-10-----9-----12-----10-----5/7-7-10-----9-----12-----10-----12/14-14-|
D|----------------------------------------------------------------------| 
A|-8--0-0-7-0-0-10-0-0-8--0-0-3/5-5-8--0-0-7-0-0-10-0-0-8--0-0-10/12-12-|
D|----0-0---0-0----0-0----0-0----------0-0---0-0----0-0----0-0----------|
      * *   * *    * *    * *          * *   * *    * *    * *

e|-------------------------------------------------------------------------------------------|
B|-------------------------------------------------------------------------------------------|
G|-10--10-10-10-10-10-10--10-10--10-10-10-10-9---9--9--9--9--9--9---9--9---9--9--9--9--------|
D|-10--10-10-10-10-10-10--10-10--10-10-10-10-10--10-10-10-10-10-10--10-10--10-10-10-10-------| 
A|-8---8--8--8--8--8--8---8--8---8--8--8--8--8---8--8--8--8--8--8---8--8---8--8--8--8--0-0-0-|
D|-8---8--8--8--8--8--8---8--8---8--8--8--8--8---8--8--8--8--8--8---8--8---8--8--8--8--0-0-0-|
                                                                                       * * *

e|----------------------------------------------------------------------|
B|----------------------------------------------------------------------|
G|-10-----9-----12-----10-----5/7-7-10-----9-----12-----10-----12/14-14-|
D|----------------------------------------------------------------------|
A|-8--0-0-7-0-0-10-0-0-8--0-0-3/5-5-8--0-0-7-0-0-10-0-0-8--0-0-10/12-12-|
D|----0-0---0-0----0-0----0-0----------0-0---0-0----0-0----0-0----------|
      * *   * *    * *    * *          * *   * *    * *    * *

e|--------------------------------------------------------------------------------|
B|--------------------------------------------------------------------------------|
G|-10--10-10-10-10-10-10--10-10--10-10-10-10-9--9---9--9---9--9---9--9---9--9--9--|
D|-10--10-10-10-10-10-10--10-10--10-10-10-10-10-10--10-10--10-10--10-10--10-10-10-|
A|-8---8--8--8--8--8--8---8--8---8--8--8--8--8--8---8--8---8--8---8--8---8--8--8--|
D|-8---8--8--8--8--8--8---8--8---8--8--8--8--8--8---8--8---8--8---8--8---8--8--8--|
                                                                                       
Second half is played staccato

e|-----------------------------------12----------------------12----------|
B|--------------------------10----10----10----10----10----10----10----10-|
G|-----------------------13----13----------13----13----13----------13----|
D|-0h1-0-0-0h1-0-0-0h1-0-------------------------------------------------| x5
A|-0h1-0-0-0h1-0-0-0h1-0-------------------------------------------------|
D|-0h1-0-0-0h1-0-0-0h1-0-------------------------------------------------|

e|-----------------------------------12----------------------12----------------------------------------------|
B|--------------------------10----10----10----10----10----10----10----10-------------------------------------|
G|-----------------------13----13----------13----13----13----------13----9--9---9--9---9--9---9--9---9--9--9-|
D|-0h1-0-0-0h1-0-0-0h1-0-------------------------------------------------10-10--10-10--10-10--10-10--10-10-10|
A|-0h1-0-0-0h1-0-0-0h1-0-------------------------------------------------8--8---8--8---8--8---8--8---8--8--8-|
D|-0h1-0-0-0h1-0-0-0h1-0-------------------------------------------------8--8---8--8---8--8---8--8---8--8--8-|

e|----------------------------0-------|
B|------------------------------------|
G|-10--10-10-10-10------10------10----|
D|-10--10-10-10-10---10----10------10-| x3
A|-8---8--8--8--8--0------------------|
D|-8---8--8--8--8--0-(Let ring)-------|

Clean ^^^

e|-----------------------------------------------|
B|-----------------------------------------------|
G|-10--10-10-10-10-10-10-10-12-12-12-12-12-12-12-|
D|-10--10-10-10-10-10-10-10-10-10-10-10-10-10-10-|
A|-8---8--8--8--8--8--8--8--8--8--8--8--8--8--8--|
D|-8---8--8--8--8--8--8--8--8--8--8--8--8--8--8--|

e|---------------------------------------|
B|---------------------------------------|
G|-10-10-10-10-10-10-----------10-9----7-|
D|-10-10-10-10-10-10-0--8-7---------10---| x3
A|-8--8--8--8--8--8--0------10-----------|
D|-8--8--8--8--8--8--0-(Let ring)--------|

e|-------------------------------------------------------------------------------------|
B|-------------------------------------------------------------------------------------|
G|-10--10-10-10-10-10-10-10-12-12-12-12-12-12-12-10--10-10-10-10-10-10-10-10-10-10-10--|
D|-10--10-10-10-10-10-10-10-10-10-10-10-10-10-10-10--10-10-10-10-10-10-10-10-10-10-10--|
A|-8---8--8--8--8--8--8--8--8--8--8--8--8--8--8--8---8--8--8--8--8--8--8--8--8--8--8---|
D|-8---8--8--8--8--8--8--8--8--8--8--8--8--8--8--8---8--8--8--8--8--8--8--8--8--8--8---|

e|------------------------------|
B|------------------------------|
G|------------------------------|
D|------------------------------| x4
A|-1-1-1-0--0-0-0-0-0--0-0--0-0-|
D|-1-1-1-0--0-0-0-0-0--0-0--0-0-|
            * * * * *  * *  * *

e|----------------------------------|
B|----------------------------------|
G|-------------10-9-----10-9-----10-|
D|---------8-7------8-7------8-7----| x4
A|-1-1-1-0--------------------------|
D|-1-1-1-0--------------------------|

e|--------------------|
B|--------------------|
G|--------------------|
D|-------0------------|
A|-1-1-1-0-(Let ring)-|
D|-1-1-1-0------------|

e|--------------------------------------------------------------|
B|--------------------5-5-5-5-----------------------------------|
G|--------------------8-8-8-8---------------7-6---6-5---5tr6tr5-|
D|----------------------------------------------8-----7---------| x2
A|-0-0-0--0-0--0--0-0---------0-0-0--0-0--0---------------------|
D|-0-0-0--0-0--0--0-0---------0-0-0--0-0--0---------------------|
   * * *  * *  *  * *         * * *  * *  *

Slowed again from previous time ^^^

e|-----------------------------------------------------------------------------|
B|-10-10-10--10-10--10--10-10-17171717171717-10-10-10--10-10--10---------------|
G|-13-13-13--13-13--13--13-13-20202020202020-13-13-13--13-13--13-7-6---6-5---5-|
D|-------------------------------------------------------------------8-----7---| x2
A|-----------------------------------------------------------------------------|
D|-----------------------------------------------------------------------------|

Not on record, but played live. Slowed down yet again ^^^

e|--------------|
B|--------------|
G|--------------|
D|-0------------|
A|-0-(Let ring)-|
D|-0------------|


            
            
Suggest correction
Creating personal tab
Creating personal tab
You can edit any tab online and save it as your Personal.

You can edit, replace or remove any tab part or add personal notes – all changes will be seen only by you.

Personal tabs can be accessed anytime from any device, even offline.
Learn more »
Give kudos to tab author, rate the tab!
1 2 3 4 5
comments
print report bad tab
guest
You may want to rate the tab now too:
select rating
Wanna post a correction for this tab? Suggest correction