Oops, an error
Loading. Please wait.

Inner Reprisal Tab

25 views 1 this week
no commentswrite comment
1 2 3 4 5
3 more votes to show rating
add to favorites
launch autoscroll
font size
0
reset
how to read this tab
guitar tuner
Autoscroll
slow
fast
+/-
esc
set tempo
stop
Help us to improve Ultimate-Guitar.com Take our survey!
×
Author
Difficulty
Tuning
intermediate
C G C F A D
Renounced - inner reprisal (First guitar only)

Guitar 2 on his own x2

D|-----------------------------------|
A|-----------------------------------|
F|-----------------------------------|
C|-----------------------------------| x4
G|-0-0--0--0-0---0-0-----------------|
C|-0-0--0--0-0---0-0-(Chug ring out)-|
   * *  *  * *   * *

D|--------------------------------------------------------------------------------------------|
A|--------------------------------------------------------------------------------------------|
F|-------------10--10--10--10--10--10--10--10--10---------------------------------------------|
C|-------------10--10--10--10--10--10--10--10--10-------0--0--0--0--0--0--0--0--0-------------|
G|-------8-7---8---8---8---8---8---8---8---8---8--8-7---0--0--0--0--0--0--0--0--0-------8-7---|
C|-4-3-1-----8-8---8---8---8---8---8---8---8---8------8-0--0--0--0--0--0--0--0--0-4-3-1-----8-|

D|-------------------------------------------------------------------|
A|-------------------------------------------------------------------|
F|-------------------------------------------------------------------|
C|-8-7---10-8-7-8-7---10/12-12-0--0--0--0--0--0--0--0--0-------------|
G|-----8------------8----------0--0--0--0--0--0--0--0--0-------8-7---|
C|-----------------------------0--0--0--0--0--0--0--0--0-4-3-1-----8-|

D|-----------------------------------------------------------------------------------------------------------|
A|-----------------------------------------------------------------------------------------------------------|
F|-10-10-10-10-10-10-10-10-10-10-10-10———————————————————————————————————————————————————————————————————————|
C|-10-10-10-10-10-10-10-10-10-10-10-10-5--5--5--5--5--5--5--5--5--5--5--5-7--7--7--7--7--7--7--7--7--7--7--7-|
G|-8--8--8--8--8--8--8--8--8--8--8--8--3--3--3--3--3--3--3--3--3--3--3--3-5--5--5--5--5--5--5--5--5--5--5--5-|
C|-8--8--8--8--8--8--8--8--8--8--8--8--3--3--3--3--3--3--3--3--3--3--3--3-5--5--5--5--5--5--5--5--5--5--5--5-|

D|----------------------------------|
A|----------------------------------|
F|----------------------------------|
C|----------------------------------|
G|----------------------------------|
C|-00000000000000000000000000000000-|
   ********************************

D|---------------------------------------------------------------------------------------------|
A|---------------------------------------------------------------------------------------------|
F|-10--10--10--10--10--10--10--10--10--10--10--10--------14----12----9/10-10-10-10-10-10-10-10-|
C|-10--10--10--10--10--10--10--10--10--10--10--10----------------------------------------------| 1,3
G|-8---8---8---8---8---8---8---8---8---8---8---8---------12----10----7/8--8--8--8--8--8--8--8--|
C|-8---8---8---8---8---8---8---8---8---8---8---8--000000----00----00---------------------------|
                                                  ******    **    **

D|-------------------------------------------------------------------------------------------------|
A|-------------------------------------------------------------------------------------------------|
F|-12-12-12-12-12-12-12-12-12-12-12-12-12-14-14-14-15-15-15-15-15-15-15-15-15-14-14-14-14-14-14-14-|
C|-------------------------------------------------------------------------------------------------| 2,4
G|-10-10-10-10-10-10-10-10-10-10-10-10-10-12-12-12-13-13-13-13-13-13-13-13-13-12-12-12-12-12-12-12-|
C|-------------------------------------------------------------------------------------------------|

D|---------------------------------------------------------------------------------------------|
A|---------------------------------------------------------------------------------------------|
F|-10--10--10--10--10--10--10--10--10--10--10--10--------14----12----9/10-10-10-10-10-10-10-10-|
C|-10--10--10--10--10--10--10--10--10--10--10--10----------------------------------------------|
G|-8---8---8---8---8---8---8---8---8---8---8---8---------12----10----7/8--8--8--8--8--8--8--8--|
C|-8---8---8---8---8---8---8---8---8---8---8---8--000000----00----00---------------------------|
                                                  ******    **    **

D|-------------------------------------------------------------------------------------------------|
A|-------------------------------------------------------------------------------------------------|
F|-12-12-12-12-12-12-12-12-12-12-12-12-12-14-14-14-15-15-15-15-15-15-15-15-15-14-14-14-14-14-14-14-|
C|-------------------------------------------------------------------------------------------------|
G|-10-10-10-10-10-10-10-10-10-10-10-10-10-12-12-12-13-13-13-13-13-13-13-13-13-12-12-12-12-12-12-12-|
C|-------------------------------------------------------------------------------------------------|

D|----------------------------------------------|
A|----------------------------------------------|
F|--------14----12----9/10-10-10-10-10-10-10-10-|
C|----------------------------------------------|
G|--------12----10----7/8--8--8--8--8--8--8--8--|
C|-000000----00----00---------------------------|
   ******    **    **

D|--------------|
A|--------------|
F|--------------|
C|-0------------|
G|-0-(Let ring)-|
C|-0------------|

Guitar plays breakdown riff x1^^^

D|-----------------------------------------|
A|-----------------------15----15----15----|
F|--------------------18----18----18----18-|
C|-(0)-------------------------------------|
G|-(0)-------------------------------------|
C|-(0)-------------------------------------|

On second guitar 2 breakdown ^^^

D|-------------------------|
A|-------------------------|
F|-------------------------|
C|-------------------------| x2
G|-0-0-0-0-0--0-0-0--0-0-0-|
C|-0-0-0-0-0--0-0-0--0-0-0-|
   * * * * *  * * *  * * *

D|----------------------------------|
A|-----------15---------------------|
F|-----------18---------------------|
C|--------------------------------1-| x4
G|-0-0-0-0-0-----0-0-0--0-0-------1-|
C|-0-0-0-0-0-----0-0-0--0-0-0h1h4-1-|
   * * * * *     * * *  * *

D|-------------------------|
A|-------------------------|
F|-------------------------|
C|-------------------------| x4
G|-0-0-0-0-0--0-0-0--0-0-0-|
C|-0-0-0-0-0--0-0-0--0-0-0-|
   * * * * *  * * *  * * *

D|--------------|
A|--------------|
F|--------------|
C|-0------------| 
G|-0-(Let ring)-|
C|-0------------|

Guitar 2 plays a riff 4x over ring out, then...

D|----------12h13p12----15/17\15-13-12h13p12-----12-----------------|
A|-------13----------13----------------------13-----13----13-13/15--|
F|----14-----------------------------------------------12-----------|
C|-15---------------------------------------------------------------|
G|------------------------------------------------------------------|
C|------------------------------------------------------------------|

Sweep pick first four notes ^^^

D|---------8--------------------12------12------12------12------12-------|
A|------10----10----------10-------8-------8-------8-------8-------8-----|
F|---10----------10----10----10------10------10------10------10------10--|
C|-8----------------8----------------------------------------------------|
G|-----------------------------------------------------------------------|
C|-----------------------------------------------------------------------|

D|-8p5-------8--------8p5-------8-----8/10-17-------17-------17-------17-------17----------|
A|-----6---6---6----------6---6---6-----------15-------15-------15-------15-------15----15-|
F|-------9-------9----------9-------9------------17-------17-------17-------17-------17----|
C|-----------------7-----------------------------------------------------------------------|
G|-----------------------------------------------------------------------------------------|
C|-----------------------------------------------------------------------------------------|

D|-13-------13-------13-------13-------13----------|-12-------12-------13-------12-------13----12----|
A|----15-------15-------15-------15-------15----15-|----15-------15-------15-------15-------15----15-|
F|-------17-------17-------17-------17-------17----|-------17-------17-------17-------17-------------|
C|-------------------------------------------------|-------------------------------------------------|
G|-------------------------------------------------|-------------------------------------------------|
C|---------------- x2 -----------------------------|-------------------------------------------------|

D|-17-------17-------17-------17-------17----------17-15-13-15-13-12-13-12-10-12-10-8-10-12-10-8-|
A|----15-------15-------15-------15-------15----15-----------------------------------------------|
F|-------17-------17-------17-------17-------17--------------------------------------------------|
C|-----------------------------------------------------------------------------------------------|
G|-----------------------------------------------------------------------------------------------|
C|-----------------------------------------------------------------------------------------------|

D|-1010101010101010101010101010101010101010101010101010101010101010-|
A|------------------------------------------------------------------|
F|------------------------------------------------------------------|
C|------------------------------------------------------------------|
G|------------------------------------------------------------------|
C|------------------------------------------------------------------|

Play this section slightly quieter ^^^ 

D|-8p5-------8--------8p5-------8-----8/10-(sustain)-|
A|-----6---6---6----------6---6---6------------------|
F|-------9-------9----------9-------9----------------|
C|-----------------7---------------------------------|
G|---------------------------------------------------|
C|---------------------------------------------------|

D|-----------------------------------------------------------------------------------------------|
A|----------------------------------------------------------------------------------------15-----|
F|-15--15--15--15--15--15--14--14--14--14--14--14--15--15--15--15--15--15-15--14------17------14-|
C|-12--12--12--12--12--12--12--12--12--12--12--12--12--12--12--12--12--12---------15-------------| 1,3,5,7
G|-12--12--12--12--12--12--12--12--12--12--12--12--12--12--12--12--12--12------------------------|
C|-12--12--12--12--12--12--12--12--12--12--12--12--12--12--12--12--12--12------------------------|

D|------------------------------------------------------------------------------------------------|
A|------------------------------------------------------------------------------------------------|
F|-------------------------------------------------------------------------10--10--10--10--10--10-|
C|-12--12--12--12--12--12--10--10--10--10--10--10--14--14--14--14--14--14--10--10--10--10--10--10-| 2,6
G|-8---8---8---8---8---8---8---8---8---8---8---8---8---8---8---8---8---8---8---8---8---8---8---8--|
C|-8---8---8---8---8---8---8---8---8---8---8---8---8---8---8---8---8---8---8---8---8---8---8---8--|

D|------------------------------------------------------------------------8-------|
A|------------------------------------------------8-------8-------8---------------|
F|--------------------------------------------------10------10------10------10----|
C|-12--12--12--12--12--12--10--10--10--10--10--10------10------10------10------10-| 4,8
G|-8---8---8---8---8---8---8---8---8---8---8---8----------------------------------|
C|-8---8---8---8---8---8---8---8---8---8---8---8----------------------------------|

D|--------------|
A|--------------|
F|--------------|
C|-0------------|
G|-0-(Let ring)-|
C|-0------------|

D|-------------------------|
A|-------------------------|
F|-------------------------|
C|-------------------------|
G|-0-0-0-0-0--0-0-0--0-0-0-|
C|-0-0-0-0-0--0-0-0--0-0-0-|
   * * * * *  * * *  * * *

Gradually slows down. Repeat for ages.
Suggest correction
Give kudos to tab author, rate the tab!
1 2 3 4 5
comments
print report bad tab
guest
You may want to rate the tab now too:
select rating
Wanna post a correction for this tab? Suggest correction