Oops, an error
Loading. Please wait.

Love And Depression tab

100 views 1 this week
no commentswrite comment
1 2 3 4 5
2 more votes to show rating
add to favorites
×
Save as Personal and add changes to this tab that will be seen only by you. Learn more ›
×
You can save this tab as Personal to edit and correct it or add notes. All changes will be seen only by you. Learn more »
launch autoscroll
font size
0
reset
how to read this tab
guitar tuner
edit
Autoscroll
slow
fast
+/-
esc
set tempo
stop
    D|----------------------------------------|
    A|----------------------------------------|
GTR F|----------------------------------------|
 1  C|----------------------------------------|
    G|-0-0--0-0--0-0--0-0--0-0--0-0--0-0--0-0-|
    C|-0-0--0-0--0-0--0-0--0-0--0-0--0-0--0-0-|
       P M  P M  P M  P M  P M  P M  P M  P M

    D|--------------------|
    A|--------------------|
GTR F|--------------------|
 1  C|--------------------| x3
    G|-0-0--0-0--0-0--0-0-|
    C|-0-0--0-0--0-0--0-0-|
       P M  P M  P M  P M  

    D|-17-------17-------17-------17-------17----------|
    A|----15-------15-------15-------15-------15----15-|
GTR F|-------18-------18-------18-------18-------18----|
 2  C|-------------------------------------------------| x3
    G|-------------------------------------------------|
    C|-------------------------------------------------|

    D|-------------------------------|
    A|-------------------------------|
GTR F|-------------------------------|
 1  C|-------------------------------|
    G|-0-0--0-0--0-0-0-0-0-0-0-0-0-0-|
    C|-0-0--0-0--0-0-0-0-0-0-0-0-0-0-|
       P M  P M  P M P M P M P M P M 

    D|-17-------17-------17-------17-------17----------|
    A|----15-------15-------15-------15-------15----15-|
GTR F|-------18-------18-------18-------18-------18----|
 2  C|-------------------------------------------------| 
    G|-------------------------------------------------|
    C|-------------------------------------------------|


    D|------------------------------------------------------|
    A|------------------------------------------------------|
GTR F|------------------------------------------------------|
 1  C|----0-----0-----0-----0-----0-----0-----0-------------| x4
    G|-0--0--0--0--0--0--0--0--0--0--0--0--0--0--0----------|
    C|-0--0--0--0--0--0--0--0--0--0--0--0--0--0--0-11111111-|
      PM    PM    PM    PM    PM    PM    PM    PM

    D|------------------------------------------------------|
    A|----15----15----15----15----15----15----15------------|
GTR F|----18----18----18----18----18----18----18------------|
 2  C|------------------------------------------------------| x4
    G|-0-----0-----0-----0-----0-----0-----0-----0----------|
    C|-0-----0-----0-----0-----0-----0-----0-----0-11111111-|
      PM    PM    PM    PM    PM    PM    PM    PM

    D|---------------------------------------------------------------|
    A|---------------------------------------------------------------|
GTR F|---------------------------------------------------------------|
 1  C|-1-------------------------------------------------------------|
    G|-1-(Let ring)--------------------------------------------------|
    C|-1-------------------------------------------------------------|

    D|--------------------------------------------------------------|
    A|--------------------------------------------------------------|
GTR F|--------------------------------------------------------------|
 2  C|--------------------------------------------------------------|
    G|-1--1--1--1111-1--1--1--1--1--1--1--1--1--1111--1--1--1--1--1-|
    C|-1--1--1--1111-1--1--1--1--1--1--1--1--1--1111--1--1--1--1--1-|
       P  M PM  PMPM P  M  P  M  P  M  P  M PM  PMPM  P  M  P  M PM

    D|-----------------------------------------------------------------|
    A|-----------------------------------------------------------------|
GTR F|-7-7-7-7-7-7-7-7-7-7-7-7-7-7-7-7-8-8-8-8-8-8-8-8-8-8-8-8-8-8-8-8-|
 1  C|-5-5-5-5-5-5-5-5-5-5-5-5-5-5-5-5-6-6-6-6-6-6-6-6-6-6-6-6-6-6-6-6-| 1,3
    G|-5-5-5-5-5-5-5-5-5-5-5-5-5-5-5-5-6-6-6-6-6-6-6-6-6-6-6-6-6-6-6-6-|
    C|-5-5-5-5-5-5-5-5-5-5-5-5-5-5-5-5-6-6-6-6-6-6-6-6-6-6-6-6-6-6-6-6-|

    D|---------------------------------------------------------------------|
    A|---------------------------------------------------------------------|
GTR F|-------14---12---10-9-7-9-5--5-------14---12---17--17-17-17-17-14-14-|
 2  C|-0-----------------------------0-------------------------------------| 1,3
    G|-0-0-0-12-0-10-0-8--7-5-7-3--3-0-0-0-12-0-10-0-15--15-15-15-15-12-12-|
    C|-0-0-0----0----0---------------0-0-0----0----0-----------------------|
         P M   PM   PM                 P M   PM   PM

    D|-------------------------------------------------------------------------------------------------|
    A|-------------------------------------------------------------------------------------------------|
GTR F|-10-10-10-10-10-10-10-10-10-10-10-10-10-10-10-10-14-14-14-14-14-14-14-14-14-15-15-15-15-15-15-15-|
 1  C|-8--8--8--8--8--8--8--8--8--8--8--8--8--8--8--8--12-12-12-12-12-12-12-12-12-13-13-13-13-13-13-13-| 2,4
    G|-8--8--8--8--8--8--8--8--8--8--8--8--8--8--8--8--12-12-12-12-12-12-12-12-12-13-13-13-13-13-13-13-|
    C|-8--8--8--8--8--8--8--8--8--8--8--8--8--8--8--8--12-12-12-12-12-12-12-12-12-13-13-13-13-13-13-13-|

    D|--------------------------------------------------------------|
    A|--------------------------------------------------------------|
GTR F|--------------------------------------------------------------|
 2  C|--------------------------------------------------------------| 2,4
    G|-1--1--1--1111-1--1--1--1--1--1--1--1--1--1111--1--1--1--1--1-|
    C|-1--1--1--1111-1--1--1--1--1--1--1--1--1--1111--1--1--1--1--1-|
       P  M PM  PMPM P  M  P  M  P  M  P  M PM  PMPM  P  M  P  M PM

    D|-----------------------------------------------------------------|
    A|-----------------------------------------------------------------|
GTR F|-7-7-7-7-7-7-7-7-7-7-7-7-7-7-7-7-8-8-8-8-8-8-8-8-8-8-8-8-8-8-8-8-|
 1  C|-5-5-5-5-5-5-5-5-5-5-5-5-5-5-5-5-6-6-6-6-6-6-6-6-6-6-6-6-6-6-6-6-| 
    G|-5-5-5-5-5-5-5-5-5-5-5-5-5-5-5-5-6-6-6-6-6-6-6-6-6-6-6-6-6-6-6-6-|
    C|-5-5-5-5-5-5-5-5-5-5-5-5-5-5-5-5-6-6-6-6-6-6-6-6-6-6-6-6-6-6-6-6-|

    D|---------------------------------------------------|
    A|---------------------------------------------------|
GTR F|---------------------------------------------------|
 2  C|---------------------------------------------------|
    G|---------------------------------------------------|
    C|-00000-00000000-0000-00-0-00000-00000000-0000-00-0-|
       PMPMPMPMPMPMPM PMPM PMPM PMPMPMPMPMPMPM PMPM PMPM

    D|---------------------------------------------------|
    A|---------------------------------------------------|
GTR F|---------------------------------------------------|
1+2 C|---------------------------------------------------|
    G|---------------------------------------------------|
    C|-00000-00000000-0000-00-0-00000-00000000-0000-00-0-|
       PMPMPMPMPMPMPM PMPM PMPM PMPMPMPMPMPMPM PMPM PMPM

    D|---------------------------------------------------|
    A|---------------------------------------------------|
GTR F|---------------------------------------------------|
 1  C|---------------------------------------------------|
    G|---------------------------------------------------|
    C|-00000-00000000-0000-00-0-00000-00000000-0000-00-0-|
       PMPMPMPMPMPMPM PMPM PMPM PMPMPMPMPMPMPM PMPM PMPM

    D|---------------------------------------------------|
    A|------5--------5----5--5-------5--------5----5--5--|
GTR F|------8--------8----8--8-------8--------8----8--8--|
 2  C|---------------------------------------------------|
    G|---------------------------------------------------|
    C|-00000-00000000-0000-00-0-00000-00000000-0000-00-0-|
       PMPMPMPMPMPMPM PMPM PMPM PMPMPMPMPMPMPM PMPM PMPM


    D|-----------------------------------------1-----------------------1-----------------3p1-----------1-|
    A|-------3---------3-------------3-----------3---3-------1-----------1-----------1-------1-------1---|
GTR F|-----5---------5---5---5-----5---------5-----5-------3---------3-----3-------3-----------3---3-----|
 2  C|---3---------3-------3-----3---------3-------------3---------3---------3---3---------------3-------| x2
    G|--------------------------------------------------------------------------1------------------------|
    C|-1---------1-------------0---------0-------------3----------3--------------------------------------|

    D|--------------|
    A|--------------|
GTR F|--------------|
1+2 C|-0------------|
    G|-0-(Let ring)-|
    C|-0------------|

    D|--------------------------8-----------8-|
    A|----------------------------6-------6---|
GTR F|------------------------------9---9-----|
 1  C|----------------------------------------|
    G|--------------------------------8-------|
    C|-000000----0-0--0--000000---------------|
       PMPMPM    P M  PM PMPMPM

    D|--------------------------------1-------|
    A|------------------------------1---1-----|
GTR F|----------------------------3-------3---|
 2  C|-(0)----------------------3-----------3-|
    G|-(0)------------------------------------|
    C|-(0)------------------------------------|

    D|--------------------------8-----------8-|
    A|----------------------------6-------6---|
GTR F|------------------------------9---9-----|
 1  C|----------------------------------------| x4 
    G|--------------------------------8-------|
    C|-000000----0-0--0--000000---------------|
       PMPMPM    P M  PM PMPMPM

    D|--------------------------------1-------|
    A|------------------------------1---1-----|
GTR F|----------------------------3-------3---|
 2  C|--------------------------3-----------3-| x4
    G|----------------------------------------|
    C|-000000----0-0--0--000000---------------|
       PMPMPM    P M  PM PMPMPM

    D|-------------------------------------------------------------------------------|
    A|-------------------------------------------------------------------------------|
GTR F|----------7----10-------------7----5-------------7----10-------------7----5----|
 1  C|-0--------5----8-----0--------5----3----0--------5----8-----0--------5----3----|
    G|-0--------5----8-----0--------5----3----0--------5----8-----0--------5----3----|
    C|-0--------5----8-----0--------5----3----0--------5----8-----0--------5----3----|

Ring out each chord ^^^

    D|---------------------------------------------------------------------1---------|
    A|---------------------------------------------------------------------1---------|
GTR F|---------------------------------------------------------------------3---------|
 2  C|-0-------------------0------------------0--------------------0-------3---------|
    G|-0-------------------0------------------0--------------------0-----------------|
    C|-0-------------------0------------------0--------------------0-----------------|

Same for guitar 2 ^^^

    D|-------------------------------------------------------------------------------|
    A|-------------------------------------------------------------------------------|
GTR F|----------7----10-------------7----5-------------7----10-------------7----5----|
 1  C|-0--------5----8-----0--------5----3----0--------5----8-----0--------5----3----|
    G|-0--------5----8-----0--------5----3----0--------5----8-----0--------5----3----|
    C|-0--------5----8-----0--------5----3----0--------5----8-----0--------5----3----|


    D|-------------------------------------------------------------------------------------------------|
    A|-11-------11-------11-------11-------11----11----11-------11-------11----11-------11-------11----|
GTR F|----14-14----14-14----14-14----14-14----14----14----12-12----12-12----12----10-10----10-10----10-|
 2  C|-------------------------------------------------------------------------------------------------| x4
    G|-------------------------------------------------------------------------------------------------|
    C|-------------------------------------------------------------------------------------------------|

    D|-------------------------------------------------------------------------------|
    A|-------------------------------------------------------------------------------|
GTR F|----------7----10-------------7----5-------------7----10-------------7----5----|
 1  C|-0--------5----8-----0--------5----3----0--------5----8-----0--------5----3----|
    G|-0--------5----8-----0--------5----3----0--------5----8-----0--------5----3----|
    C|-0--------5----8-----0--------5----3----0--------5----8-----0--------5----3----|

Strum the chords this time ^^^

    D|-------------------------------------------------------------------------------------------------|
    A|-11-------11-------11-------11-------11----11----11-------11-------11----11-------11-------11----|
GTR F|----14-14----14-14----14-14----14-14----14----14----12-12----12-12----12----10-10----10-10----10-|
 2  C|-------------------------------------------------------------------------------------------------| x4
    G|-------------------------------------------------------------------------------------------------|
    C|-------------------------------------------------------------------------------------------------|

    D|------------------------------------------------|
    A|------------------------------------------------|
GTR F|------------------------------------------------| x2
 2  C|------------------------------------------------|
    G|-0--2--1--0--3--2--1--4--3--2--3--2--1--0--1--2-|
    C|-0--2--1--0--3--2--1--4--3--2--3--2--1--0--1--2-|
       P  M  P  M  P  M  P  M  P  M  P  M  P  M  P  M

Slow down on the second time ^^^

    D|------------------------------------------------|
    A|------------------------------------------------|
GTR F|------------------------------------------------| x3
1+2 C|------------------------------------------------|
    G|-0--2--1--0--3--2--1--4--3--2--3--2--1--0--1--2-|
    C|-0--2--1--0--3--2--1--4--3--2--3--2--1--0--1--2-|
       P  M  P  M  P  M  P  M  P  M  P  M  P  M  P  M

    D|---------------------------------------------------------|
    A|---------------------------------------------------------|
GTR F|---------------------------------------------------------|
 1  C|---------------------------------------------------------| x2
    G|---------------------------------------------------------|
    C|-------------------1111-4444-33----------------1111-2222-|

    D|---------------------------------------------------------|
    A|---------------------------------------------------------|
GTR F|---------------------------------------------------------|
 2  C|-2--3--2--3--4--3----------------4--3--2--3--2-----------| x2
    G|-0--1--0--1--2--1----------------2--1--0--1--0-----------|
    C|-2--3--2--3--4--3----------------4--3--2--3--2-----------|
       P  M  P  M  P  M                P  M  P  M  PM




            
            
Suggest correction
Creating personal tab
Creating personal tab
You can edit any tab online and save it as your Personal.

You can edit, replace or remove any tab part or add personal notes – all changes will be seen only by you.

Personal tabs can be accessed anytime from any device, even offline.
Learn more »
Give kudos to tab author, rate the tab!
1 2 3 4 5
comments
print report bad tab
guest
You may want to rate the tab now too:
select rating
Wanna post a correction for this tab? Suggest correction