Oops, an error
Loading. Please wait.

My Last Dying Wish tab

25 views 1 this week
no commentswrite comment
1 2 3 4 5
2 more votes to show rating
add to favorites
×
Save as Personal and add changes to this tab that will be seen only by you. Learn more ›
×
You can save this tab as Personal to edit and correct it or add notes. All changes will be seen only by you. Learn more »
launch autoscroll
font size
0
reset
how to read this tab
guitar tuner
edit
Autoscroll
slow
fast
+/-
esc
set tempo
stop
    D|-----------------------------------------------------------------------|
    A|--------10------------10------------10------------10------------10-----|
GTR F|------7----7--------7----7--------7----7--------7----7--------7----7---|
 1  C|----8--------8----8--------8----8--------8----8--------8----8--------8-| x2
    G|-10------------10------------10------------10------------10------------|
    C|-----------------------------------------------------------------------|

    D|-----------------------------------------------------------------------|
    A|-----------------------------------------------------------------------|
GTR F|-12-------------8-------------5-------------7-------------8------------|
 2  C|-----------------------------------------------------------------------| x2
    G|-10-------------6-------------3-------------5-------------6------------|
    C|-----------------------------------------------------------------------|

    D|--------------|
    A|--------------|
GTR F|--------------|
 1  C|--------------|
    G|--------------|
    C|-00-1-0-4-1-0-|
       ** * * * * *

    D|----------------------------------------------------------------------------------|
    A|----------------------------------------------------------------------------------|
GTR F|----------------------------------------------------------------------------------|
 1  C|----------------------------------------------------------------------------------| x2
    G|---------------0-0------------------0-0--0---------------0-0---------------0-0--0-|
    C|-00-1-0-4-1-0--0-0----00-1-0-4-1-0--0-0--0-00-1-0-4-1-0--0-0----00-1-0-4-1-0-0--0-|
       ** * * * * *  * *    ** * * * * *  * *  * ** * * * * *  * *    ** * * * * * *  *

    D|-6666666666666666-5555555555555555-6666666666666-8-8-8--333333-5555555555-|
    A|--------------------------------------------------------------------------|
GTR F|-8888888888888888-7777777777777777-8888888888888-101010-555555-7777777777-|
 2  C|--------------------------------------------------------------------------| x2
    G|--------------------------------------------------------------------------|
    C|--------------------------------------------------------------------------|

D|--------------------------------------------------------|
A|--------------------------------------------------------|
F|--------------------------------------------------------|
C|--------4-1--------4-1------2-1------------0------------|
G|---------------------------------------0h1-0-(Ring out)-|
C|-00-1-0-----0-1-0------0-1------0-1--0-0h1-0------------|
   ** * *     * * *      * *      * *  * *

    D|----------------------------------------------------------------------7-----5-----|   
    A|----------------------------------------------------------------9-------9-----9---|
GTR F|--------------------------------------------------------------6---6-------6-----7-|
 1  C|-0----------------------3---------------0-------------------7-------7-------------| x4
    G|-0-------1---------3---------4----------0-------1---------9-----------------------|
    C|-0-00000---00-3-00---00---00---00-4-3-1-0-00000---00-3-00-------------------------|
         *****   **   **   **   **   ** * * *   *****   **   **

    D|----------------------------------------------------------------------------------------|   
    A|----------------------------------------------------------------------------------------|
GTR F|----------------------------------------------------------11-11-11-11-11-11-7-7-7-7-7-7-|
 1  C|-0----------------------3---------------0-----------------------------------------------| x4
    G|-0-------1---------3---------4----------0-------1---------9--9--9--9--9--9--5-5-5-5-5-5-|
    C|-0-00000---00-3-00---00---00---00-4-3-1-0-00000---00-3-00-------------------------------|
         *****   **   **   **   **   ** * * *   *****   **   **

D|------------------------------------------|
A|------------------------------------------|
F|-------11--------14--------13---------16--|
C|------------------------------------------| x2
G|-0-0-0-9---0-0-0-12--0-0-0-11--0-0-0--14--|
C|-0-0-0-----0-0-0-----0-0-0-----0-0-0------|
   * * *     * * *     * * *     * * * 

GTR 1

D|---------------------------------------------------------6-----6-----6-----6-----6-----6-----6-----6-----|
A|--------10------------10------------10------------10-----------------------------------------------------|
F|------7----7--------7----7--------7----7--------7----7-----8-8---8-8---8-8---8-8---8-8---8-8---8-8---8-8-|
C|----8--------8----8--------8----8--------8----8--------8-------------------------------------------------|
G|-10------------10------------10------------10------------------------------------------------------------|
C|---------------------------------------------------------------------------------------------------------|

GTR 2

D|-------------------------------------------------------------------------------------------------|
A|-------------------------------------------------------------------------------------------------|
F|-------------------------------------------------------------------------------------------------|
C|-5-5-5-5-5-5-5-5-5-5-5-5-5-5-5-5-5-5-5-5-5-5-5-5-8-8-8-8-8-8-8-8-8-8-8-8-8-8-8-8-8-8-8-8-8-8-8-8-|
G|-5-5-5-5-5-5-5-5-5-5-5-5-5-5-5-5-5-5-5-5-5-5-5-5-8-8-8-8-8-8-8-8-8-8-8-8-8-8-8-8-8-8-8-8-8-8-8-8-|
C|-5-5-5-5-5-5-5-5-5-5-5-5-5-5-5-5-5-5-5-5-5-5-5-5-8-8-8-8-8-8-8-8-8-8-8-8-8-8-8-8-8-8-8-8-8-8-8-8-|

D|------------------------------------------|
A|------------------------------------------|
F|-------11--------14----13---13---------16-|
C|------------------------------------------| 
G|-0-0-0-9---0-0-0-12--0-11-0-11--0-0-0--14-|
C|-0-0-0-----0-0-0-----0----0-----0-0-0-----|
   * * *     * * *     *    *     * * * 

    D|----------------------2---------2---------2--|
    A|----------------------5---------5---------5--|
GTR F|----------------------4---------4---------4--|
 1  C|---------------------------------------------| x2
    G|---------------------------------------------|
    C|-00-0-0-00-0-0-00-0-0----00-0-0----00-0-0----|
       ** * * ** * * ** * *    ** * *    ** * *

    D|---------------------------------------------|
    A|---------------------------------------------|
GTR F|----------------------11---------11-------11-|
 12  C|---------------------7----------7--------7--| x2
    G|----------------------9----------9--------9--|
    C|-00-0-0-00-0-0-00-0-0----00-0-0----00-0-0----|
       ** * * ** * * ** * *    ** * *    ** * *

    D|----------------------|
    A|----------------------|
GTR F|----------------------|
1+2 C|----------------------| 
    G|----------------------|
    C|-00-0-0-00-0-0-00-0-0-|
       ** * * ** * * ** * *  

-------------------------------------------------------------------------------------------------  

    D|--------------------------------------------------------------------------------|
    A|-t15p12p11-t17p12p11-t15p12p11-t14p12p11-t15p12p11-t14p12p11-t18p12p1-t18p12p11-|
GTR F|--------------------------------------------------------------------------------|
 1  C|--------------------------------------------------------------------------------|
    G|--------------------------------------------------------------------------------|
    C|--------------------------------------------------------------------------------|

    D|----------------------------------------|
    A|----------------------------------------|
GTR F|----------------------------------------|
 2  C|----------------------------------------| 
    G|----------------------------------------|
    C|-00-0-0-00-0-0-00-0-0---00-0-0---00-0-0-|
       ** * * ** * * ** * *   ** * *   ** * *

    D|--------------------------------------------------------------------------------|
    A|-t15p12p11-t17p12p11-t15p12p11-t14p12p11-t15p12p11-t14p12p11-t18p12p1-t21p12p11-|
GTR F|--------------------------------------------------------------------------------|
 1  C|--------------------------------------------------------------------------------|
    G|--------------------------------------------------------------------------------|
    C|--------------------------------------------------------------------------------|

    D|--------------------------------------------|
    A|--------------------------------------------|
GTR F|--------------------------------------------|
 2  C|--------------------------------5-4---------| 
    G|------------------------------------5-4-----|
    C|-44-4-4-44-4-4-44-4-4---44-4-4----------5-4-|
       ** * * ** * * ** * *   ** * *   

    D|----------------------------------------|
    A|----------------------------------------|
GTR F|----------------------------------------|
1+2 C|----------------------------------------| x2
    G|----------------------------------------|
    C|-00-0-0-00-0-0-00-0-0---00-0-0---00-0-0-|
       ** * * ** * * ** * *   ** * *   ** * *

    D|------------------------|
    A|-18-18-181818-18-181818-|
GTR F|-21-21-212121-21-212121-|
 1  C|------------------------| x4
    G|------------------------|
    C|------------------------|

    D|----------------------------------------|
    A|----------------------------------------|
GTR F|----------------------------------------|
 2  C|----------------------------------------| x2
    G|----------------------------------------|
    C|-00-0-0-00-0-0-00-0-0---00-0-0---00-0-0-|
       ** * * ** * * ** * *   ** * *   ** * *

    D|-------------------------------|
    A|-18-18-18181818-18-18-18181818-|
GTR F|-21-21-21212121-21-21-21212121-|
 1  C|-------------------------------| x2
    G|-------------------------------|
    C|-------------------------------|

    D|------------------------------------|
    A|------------------------------------|
GTR F|------------------------------------|
 2  C|------------------------------11----| x2
    G|---------------------------33----33-|
    C|-0000000000000000-44444-11----------|

    D|-------------------------------|
    A|-18-18-18181818-18-18-18181818-|
GTR F|-21-21-21212121-21-21-21212121-|
 1  C|-------------------------------| x2
    G|-------------------------------|
    C|-------------------------------|

    D|--------------------------------|
    A|--------------------------------|
GTR F|--------------------------------|
 2  C|--------------------------------| x2
    G|--------------------------------|
    C|-00000000-4444-1111111111111111-|

D|----------------------------|
A|----------------------6-----|
F|--------------5---4-7---7-4-|
C|-0--------------6-----------|
G|-0-(Ring out)---------------|
C|-0--------------------------|

D|--------------------------------------------------------|
A|-----------------------5---5----------------------6-----|
F|-----------------------8---8--------------5---4-7---7-4-|
C|--------------------------------------------6-----------| x2
G|--------------------------------------------------------|
C|-00000--00000--00000-0---0---00000--00000---------------|
   *****  *****  ***** *   *   *****  *****

D|--------------|
A|--------------|
F|--------------|
C|-2------------|
G|-2-(Ring out)-|
C|-0------------|
Suggest correction
Creating personal tab
Creating personal tab
You can edit any tab online and save it as your Personal.

You can edit, replace or remove any tab part or add personal notes – all changes will be seen only by you.

Personal tabs can be accessed anytime from any device, even offline.
Learn more »
Give kudos to tab author, rate the tab!
1 2 3 4 5
comments
print report bad tab
guest
You may want to rate the tab now too:
select rating
Wanna post a correction for this tab? Suggest correction