Oops, an error
Loading. Please wait.

Theories Of Despair album tab

version 1
version 1

Album

Whole song

52 views 6 this week
no commentswrite comment
1 2 3 4 5
2 more votes to show rating
add to favorites
×
Save as Personal and add changes to this tab that will be seen only by you. Learn more ›
×
You can save this tab as Personal to edit and correct it or add notes. All changes will be seen only by you. Learn more »
launch autoscroll
font size
0
reset
how to read this tab
guitar tuner
edit
Autoscroll
slow
fast
+/-
esc
set tempo
stop
-------------------------------------------------------------------------------
BURIED
-------------------------------------------------------------------------------

* = Palm mute
h = hammer on
p = pull off
PH = Pinched harmonic

    D|----------------------------------|
    A|----------------------------------|
GTR F|----------------------------------|
1+2 C|-------------------------0--------|
    G|-0--0--0--0--0--0--0--0--0--------|
    C|-1--0--2--0--2--1--0--1--0--------|
       *  *  *  *  *  *  *  *

    D|---------------------------------------------|
    A|---------------------------------------------|
GTR F|---------------------------------------------|
 1  C|---------------------------------------------|
    G|-0---------0-----------000---------0---------|
    C|-0---------0-----------000---------0---------|
       1 + 2 + 3 + 4 + 1 + 2 + 3 + 4 + 1 + 2 + 3 + 

Watch the timing on this bit ^ The first two bars are in 4/4 and the third is in 3/4. All palm muted.

    D|----------------------------------------------|
    A|-15--15--15--15--15--15--15--15--15--15--15---|
GTR F|---18--18--18--18--18--18--18--18--18--18--18-|
 2  C|----------------------------------------------|
    G|----------------------------------------------|
    C|----------------------------------------------|

    D|---------------------------------------------|
    A|---------------------------------------------|
GTR F|---------------------------------------------|
 1  C|---------------------------------------------| x2
    G|-0---------0-----------000---------0---------|
    C|-0---------0-----------000---------0---------|
       1 + 2 + 3 + 4 + 1 + 2 + 3 + 4 + 1 + 2 + 3 + 

    D|----------------------------------------------|
    A|-17----17----17----17----17----17----17----17-|
GTR F|----20----20----20----20----20----20----20----|
 2  C|----------------------------------------------| x2
    G|----------------------------------------------|
    C|----------------------------------------------|

    D|---------------------------------------------|
    A|---------------------------------------------|
GTR F|---------------------------------------------|
 1  C|---------------------------------------------| x2
    G|-0---------0-----------000---------0---------|
    C|-0---------0-----------000---------0---------|
       1 + 2 + 3 + 4 + 1 + 2 + 3 + 4 + 1 + 2 + 3 + 

    D|----------------------------------------------|
    A|-19----19----19----19----19----19----19----19-|
GTR F|----22----22----22----22----22----22----22----|
 2  C|----------------------------------------------| x2
    G|----------------------------------------------|
    C|----------------------------------------------|

The last four bars have a half time feel, but you still count it the same. Still palm muted, but they are 
rung out mutes.

    D|----------------------------------------------------------------|
    A|----------------------------------------------------------------|
GTR F|-2---------------------------0--2-----------------5-3-2-2h3p2---|
 1  C|-------3-----2-----------2-3----------3-----2-----------------3-|
    G|-------------------3--------------------------------------------|
    C|---0-0---0-0---0-0---0-0----------0-0---0-0---0-0---------------|
         * *   * *   * *   * *          * *   * *   * *

    D|--------------------------------------------------------------|
    A|--------------------------------------------------------------|
GTR F|-2---------------------------0--2---------------5/7-7-7-7/9-9-|
 1  C|-------3-----2-----------2-3----------3-----2-----------------|
    G|-------------------3------------------------------------------|
    C|---1-1---1-1---1-1---1-1----------1-1---1-1---1---------------|
         * *   * *   * *   * *          * *   * *   *

    D|-----------------------------------------------------------------|
    A|---------------------------------3-3-3-3-3-3-3-3-3-3-3-3-3-3-3-3-|
GTR F|---------------------------------3-3-3-3-3-3-3-3-3-3-3-3-3-3-3-3-|
 2  C|-1-1-1-1-1-1-1-1-1-1-1-1-1-1-1-1-1-1-1-1-1-1-1-1-1-1-1-1-1-1-1-1-|
    G|-1-1-1-1-1-1-1-1-1-1-1-1-1-1-1-1-1-1-1-1-1-1-1-1-1-1-1-1-1-1-1-1-|
    C|-1-1-1-1-1-1-1-1-1-1-1-1-1-1-1-1-1-1-1-1-1-1-1-1-1-1-1-1-1-1-1-1-|

    D|----------------------------------------------------------------|
    A|----------------------------------------------------------------|
GTR F|-2---------------------------0--2-----------------5-3-2-2h3p2---|
 1  C|-------3-----2-----------2-3----------3-----2-----------------3-|
    G|-------------------3--------------------------------------------|
    C|---0-0---0-0---0-0---0-0----------0-0---0-0---0-0---------------|
         * *   * *   * *   * *          * *   * *   * *

    D|-----------------------------------------------------------------|
    A|-----------------------------------------------------------------|
GTR F|-----------------------------------------------------------------|
 2  C|-----------------------------------------------------------------|
    G|-0-0-0-0-0-0-0-0-0-0-0-0-0-0-0-0-0-0-0-0-0-0-0-0-0-0-0-0-0-0-0-0-|
    C|-0-0-0-0-0-0-0-0-0-0-0-0-0-0-0-0-0-0-0-0-0-0-0-0-0-0-0-0-0-0-0-0-|
       * * * * * * * * * * * * * * * * * * * * * * * * * * * * * * * *

    D|--------------------------------------------------------------|
    A|--------------------------------------------------------------|
GTR F|-2---------------------------0--2---------------5/7-7-7-7/9-9-|
 1  C|-------3-----2-----------2-3----------3-----2-----------------|
    G|-------------------3------------------------------------------|
    C|---1-1---1-1---1-1---1-1----------1-1---1-1---1---------------|
         * *   * *   * *   * *          * *   * *   *

    D|-----------------------------------------------------------------|
    A|---------------------------------3-3-3-3-3-3-3-3-3-3-3-3-3-3-3-3-|
GTR F|---------------------------------3-3-3-3-3-3-3-3-3-3-3-3-3-3-3-3-|
 2  C|-1-1-1-1-1-1-1-1-1-1-1-1-1-1-1-1-1-1-1-1-1-1-1-1-1-1-1-1-1-1-1-1-|
    G|-1-1-1-1-1-1-1-1-1-1-1-1-1-1-1-1-1-1-1-1-1-1-1-1-1-1-1-1-1-1-1-1-|
    C|-1-1-1-1-1-1-1-1-1-1-1-1-1-1-1-1-1-1-1-1-1-1-1-1-1-1-1-1-1-1-1-1-|

    D|------------------------------------------------------------------------|
    A|------------------------------------------------------------------------|
GTR F|-10-----9-----7-----9-----9h10p9-7----7-----9-----10-----9-----10/12-12-|
 1  C|-----------------------------------10-----------------------------------|
    G|------------------------------------------------------------------------|
    C|----0-0---0-0---0-0---0-0---------------0-0---0-0----0-0---0-0----------|
          * *   * *   * *   * *               * *   * *    * *   * * 

    D|-------------------------------------------------------------------------|
    A|-------------------------------------------------------------------------|
GTR F|-7-7-7-7-7-7-7-7-7-7-7-7-7-7-7-7-7-7-7-5-5-5-5-5-5-5-5-5-5-5-5-5-5-5-5-5-|
 2  C|-5-5-5-5-5-5-5-5-5-5-5-5-5-5-5-5-5-5-5-3-3-3-3-3-3-3-3-3-3-3-3-3-3-3-3-3-|
    G|-5-5-5-5-5-5-5-5-5-5-5-5-5-5-5-5-5-5-5-3-3-3-3-3-3-3-3-3-3-3-3-3-3-3-3-3-|
    C|-5-5-5-5-5-5-5-5-5-5-5-5-5-5-5-5-5-5-5-3-3-3-3-3-3-3-3-3-3-3-3-3-3-3-3-3-|

    D|-------------------------------------------------------------|
    A|---------------------------------3-3-3-3-3-3-3-3-3-3-3-3-3-3-|
GTR F|---------------------------------3-3-3-3-3-3-3-3-3-3-3-3-3-3-|
 1  C|-1-1-1-1-1-1-1-1-1-1-1-1-1-1-1-1-1-1-1-1-1-1-1-1-1-1-1-1-1-1-|
    G|-1-1-1-1-1-1-1-1-1-1-1-1-1-1-1-1-1-1-1-1-1-1-1-1-1-1-1-1-1-1-|
    C|-1-1-1-1-1-1-1-1-1-1-1-1-1-1-1-1-1-1-1-1-1-1-1-1-1-1-1-1-1-1-|

    D|-------------------------------------------------------------------------------------------|
    A|-------------------------------------------------------------------------------------------|
    F|-12-12-12-12-12-12-12-12-12-12-12-12-12-12-12-12-14-14-14-14-14-14-14-14-14-14-14-14-14-14-|
    C|-------------------------------------------------------------------------------------------|
    G|-10-10-10-10-10-10-10-10-10-10-10-10-10-10-10-10-12-12-12-12-12-12-12-12-12-12-12-12-12-12-|
    C|-------------------------------------------------------------------------------------------|

Note that the final bar is in 3/4.

    D|----------------------------------------------------------|
    A|----------------------------------------------------------|
GTR F|----------------------------------------------------------| 1,3
1+2 C|-1--0---0-----3--1---1-----3--0---0-----3-----------------|
    G|-1--0-0-0-0-0-3--1-1-1-1-1-3--0-0-0-0-0-3-0-1-0-1-4--1--3-|
    C|-1--0-0-0-0-0-3--1-1-1-1-1-3--0-0-0-0-0-3-0-1-0-1-4--1--3-|
            *   * *      *   * *      *   * *   * * * * *  *  *

    D|-----------------------------------------------------|
    A|-----------------------------------------------------|
GTR F|-----------------------------------------------------| 2
1+2 C|-0---0-----3--1---1-----3--0---0---------------------|
    G|-0-0-0-0-0-3--1-1-1-1-1-3--0-0-0-0-0-0-0-0-0-0-0-0-0-|
    C|-0-0-0-0-0-3--1-1-1-1-1-3--0-0-0-0-0-0-0-0-0-0-0-0-0-|
         *   * *      *   * *      *   * * * * * * * * * *

    D|-----------------------------------------------------|
    A|-------------------------------------5-(ring out)----|
GTR F|-------------------------------------8---------------| 4
1+2 C|-0---0-----3--1---1-----3--0---0---------------------|
    G|-0-0-0-0-0-3--1-1-1-1-1-3--0-0-0-0-0-----------------|
    C|-0-0-0-0-0-3--1-1-1-1-1-3--0-0-0-0-0-----------------|
         *   * *      *   * *      *   * * 

    D|-----------------------------------------------------|
    A|-----------------------------------------------------|
GTR F|-----------------------------------------------------| 4
 2 C|-0---0-----3--1---1-----3--0---0----------------------|
    G|-0-0-0-0-0-3--1-1-1-1-1-3--0-0-0-0-0-0-0-0-0-0-0-0-0-|
    C|-0-0-0-0-0-3--1-1-1-1-1-3--0-0-0-0-0-0-0-0-0-0-0-0-0-|
         *   * *      *   * *      *   * * * * * * * * * *

    D|----------------------------------------------------------------|
    A|----------------------------------------------------------------|
GTR F|-2---------------------------0--2-----------------5-3-2-2h3p2---|
 1  C|-------3-----2-----------2-3----------3-----2-----------------3-|
    G|-------------------3--------------------------------------------|
    C|---0-0---0-0---0-0---0-0----------0-0---0-0---0-0---------------|
         * *   * *   * *   * *          * *   * *   * *

    D|--------------------------------------------------------------|
    A|--------------------------------------------------------------|
GTR F|-2---------------------------0--2---------------5/7-7-7-7/9-9-|
 1  C|-------3-----2-----------2-3----------3-----2-----------------|
    G|-------------------3------------------------------------------|
    C|---1-1---1-1---1-1---1-1----------1-1---1-1---1---------------|
         * *   * *   * *   * *          * *   * *   *

    D|-----------------------------------------------------------------|
    A|---------------------------------3-3-3-3-3-3-3-3-3-3-3-3-3-3-3-3-|
GTR F|---------------------------------3-3-3-3-3-3-3-3-3-3-3-3-3-3-3-3-|
 2  C|-1-1-1-1-1-1-1-1-1-1-1-1-1-1-1-1-1-1-1-1-1-1-1-1-1-1-1-1-1-1-1-1-|
    G|-1-1-1-1-1-1-1-1-1-1-1-1-1-1-1-1-1-1-1-1-1-1-1-1-1-1-1-1-1-1-1-1-|
    C|-1-1-1-1-1-1-1-1-1-1-1-1-1-1-1-1-1-1-1-1-1-1-1-1-1-1-1-1-1-1-1-1-|

    D|----------------------------------------------------------------|
    A|----------------------------------------------------------------|
GTR F|-2---------------------------0--2-----------------5-3-2-2h3p2---|
 1  C|-------3-----2-----------2-3----------3-----2-----------------3-|
    G|-------------------3--------------------------------------------|
    C|---0-0---0-0---0-0---0-0----------0-0---0-0---0-0---------------|
         * *   * *   * *   * *          * *   * *   * *

    D|-----------------------------------------------------------------|
    A|-----------------------------------------------------------------|
GTR F|-----------------------------------------------------------------|
 2  C|-----------------------------------------------------------------|
    G|-0-0-0-0-0-0-0-0-0-0-0-0-0-0-0-0-0-0-0-0-0-0-0-0-0-0-0-0-0-0-0-0-|
    C|-0-0-0-0-0-0-0-0-0-0-0-0-0-0-0-0-0-0-0-0-0-0-0-0-0-0-0-0-0-0-0-0-|
       * * * * * * * * * * * * * * * * * * * * * * * * * * * * * * * *

    D|--------------------------------------------------------------|
    A|--------------------------------------------------------------|
GTR F|-2---------------------------0--2---------------5/7-7-7-7/9-9-|
 1  C|-------3-----2-----------2-3----------3-----2-----------------|
    G|-------------------3------------------------------------------|
    C|---1-1---1-1---1-1---1-1----------1-1---1-1---1---------------|
         * *   * *   * *   * *          * *   * *   *

    D|-----------------------------------------------------------------|
    A|---------------------------------3-3-3-3-3-3-3-3-3-3-3-3-3-3-3-3-|
GTR F|---------------------------------3-3-3-3-3-3-3-3-3-3-3-3-3-3-3-3-|
 2  C|-1-1-1-1-1-1-1-1-1-1-1-1-1-1-1-1-1-1-1-1-1-1-1-1-1-1-1-1-1-1-1-1-|
    G|-1-1-1-1-1-1-1-1-1-1-1-1-1-1-1-1-1-1-1-1-1-1-1-1-1-1-1-1-1-1-1-1-|
    C|-1-1-1-1-1-1-1-1-1-1-1-1-1-1-1-1-1-1-1-1-1-1-1-1-1-1-1-1-1-1-1-1-|

    D|------------------------------------------------------------------------|
    A|------------------------------------------------------------------------|
GTR F|-10-----9-----7-----9-----9h10p9-7----7-----9-----10-----9-----10/12-12-|
 1  C|-----------------------------------10-----------------------------------|
    G|------------------------------------------------------------------------|
    C|----0-0---0-0---0-0---0-0---------------0-0---0-0----0-0---0-0----------|
          * *   * *   * *   * *               * *   * *    * *   * * 

    D|-------------------------------------------------------------------------|
    A|-------------------------------------------------------------------------|
GTR F|-7-7-7-7-7-7-7-7-7-7-7-7-7-7-7-7-7-7-7-5-5-5-5-5-5-5-5-5-5-5-5-5-5-5-5-5-|
 2  C|-5-5-5-5-5-5-5-5-5-5-5-5-5-5-5-5-5-5-5-3-3-3-3-3-3-3-3-3-3-3-3-3-3-3-3-3-|
    G|-5-5-5-5-5-5-5-5-5-5-5-5-5-5-5-5-5-5-5-3-3-3-3-3-3-3-3-3-3-3-3-3-3-3-3-3-|
    C|-5-5-5-5-5-5-5-5-5-5-5-5-5-5-5-5-5-5-5-3-3-3-3-3-3-3-3-3-3-3-3-3-3-3-3-3-|

    D|-------------------------------------------------------------|
    A|---------------------------------3-3-3-3-3-3-3-3-3-3-3-3-3-3-|
GTR F|---------------------------------3-3-3-3-3-3-3-3-3-3-3-3-3-3-|
 1  C|-1-1-1-1-1-1-1-1-1-1-1-1-1-1-1-1-1-1-1-1-1-1-1-1-1-1-1-1-1-1-|
    G|-1-1-1-1-1-1-1-1-1-1-1-1-1-1-1-1-1-1-1-1-1-1-1-1-1-1-1-1-1-1-|
    C|-1-1-1-1-1-1-1-1-1-1-1-1-1-1-1-1-1-1-1-1-1-1-1-1-1-1-1-1-1-1-|

    D|-------------------------------------------------------------------------------------------|
    A|-------------------------------------------------------------------------------------------|
    F|-12-12-12-12-12-12-12-12-12-12-12-12-12-12-12-12-14-14-14-14-14-14-14-14-14-14-14-14-14-14-|
    C|-------------------------------------------------------------------------------------------|
    G|-10-10-10-10-10-10-10-10-10-10-10-10-10-10-10-10-12-12-12-12-12-12-12-12-12-12-12-12-12-12-|
    C|-------------------------------------------------------------------------------------------|

Note that the final bar is in 3/4.

    D|-----------------|
    A|-----------------|
GTR F|-----------------|
1+2 C|-----------------|
    G|-----------------|
    C|-1-0-3-0-4-0-3-0-|


    D|-----------------------------------------------------------------|
    A|-----------------------------------------------------------------|
GTR F|-----------------------------------------------------------------|
1+2 C|-----------------------------------------------------------------| x2
    G|-------------0-0-------------0-0-------------0-0-----------------|
    C|-000-000-----0-0-000-000-----0-0-000-000-----0-0-1-0-3-0-4-0-3-0-|
       *** ***     * * *** ***     * * *** ***     * *

    D|-----------------------------------------------------------------|
    A|-----------------------------------------------------------------|
GTR F|-----------------------------------------------------------------|
 1  C|-----------------------------------------------------------------| x2
    G|-------------0-0-------------0-0-------------0-0-----------------|
    C|-000-000-----0-0-000-000-----0-0-000-000-----0-0-1-0-3-0-4-0-3-0-|
       *** ***     * * *** ***     * * *** ***     * *

    D|--------------------------------------------------------------|
    A|---------15-------------15-------------15---------------------|
GTR F|---------18-------------18-------------18---------------------|
 2  C|--------------------------------------------------------------| x2
    G|------------0-0------------0-0------------0-0-----------------|
    C|-000-000----0-0-000-000----0-0-000-000----0-0-1-0-3-0-4-0-3-0-|
       *** ***    * * *** ***    * * *** ***    * *

    D|-----------------------------------|
    A|-----------------------------------|
GTR F|-----------------------------------|
 1  C|-0--1p0-3p0-4p0-3p0-1p0-3p0--------| 1
    G|-0---------------------------0-0-0-|
    C|-0---------------------------0-0-0-|
                                   * * *

    D|--------------------------------|
    A|--------------------------------|
GTR F|--------------------------------|
 1  C|-1p0-3p0-4p0-3p0-1p0-3p0--------| 2,3
    G|--------------------------0-0-0-|
    C|--------------------------0-0-0-|
                                * * *

    D|---------------------------|
    A|---------------------------|
GTR F|---------------------------|
 1  C|-1p0-3p0-4p0-3p0-1p0-3PH---| 4
    G|---------------------------|
    C|---------------------------|

Gradually decrease tempo in this bit ^

    D|-----------------------------------------------------------------|
    A|-----------------------------------------------------------------|
GTR F|-----------------------------------------------------------------|
1+2 C|-----------------------------------------------------------------| x2
    G|-------------0-0-------------0-0-------------0-0-----------------|
    C|-000-000-----0-0-000-000-----0-0-000-000-----0-0-1-0-3-0-4-0-3-0-|
       *** ***     * * *** ***     * * *** ***     * *

    D|-----------------------------------------------------------------|
    A|-----------------------------------------------------------------|
GTR F|-----------------------------------------------------------------|
 1  C|-----------------------------------------------------------------| x2
    G|-------------0-0-------------0-0-------------0-0-----------------|
    C|-000-000-----0-0-000-000-----0-0-000-000-----0-0-1-0-3-0-4-0-3-0-|
       *** ***     * * *** ***     * * *** ***     * *

    D|--------------------------------------------------------------|
    A|---------15-------------15-------------15---------------------|
GTR F|---------18-------------18-------------18---------------------|
 2  C|--------------------------------------------------------------| x2
    G|------------0-0------------0-0------------0-0-----------------|
    C|-000-000----0-0-000-000----0-0-000-000----0-0-1-0-3-0-4-0-3-0-|
       *** ***    * * *** ***    * * *** ***    * *

    D|--------------|
    A|--------------|
GTR F|--------------|
1+2 C|-0------------|
    G|-0-(Ring out)-|
    C|-0------------|


---------------------------------------------------------------------------------
A FIRE NO LONGER BURNS
---------------------------------------------------------------------------------

D|----------6--6--6--6--6--6--6--6--6--6--6--6-----------6--6--6--6--6--6--6--6-------------|
A|----------10-10-10-10-10-10-10-10-10-10-10-10----------10-10-10-10-10-10-10-10------------|
F|------------------------------------------------------------------------------------------|
C|-------------------------------------------------------------------------------10877------| x2
G|------------------------------------------------------------------------------------10877-|
C|-00000000-------------------------------------00000000------------------------------------|
   ********                                     ********

D|-----------------------------------------------------------------|
A|-----------------------------------------------------------------|
F|-----------------------------------------------------------------|
C|---------8-------------------------------8-----------------------| x2
G|-0-0-0-0---6-5-6-0-0-0-0-3-5-6---0-0-0-0---6-5-6-5-3-5-6---------|
C|-0-0-0-0---------0-0-0-0-------4-0-0-0-0-----------------4-1-5-1-|
   * * * *         * * * *         * * * *

D|---------------------------------|
A|---------------------------------|
F|-------------------------0-0-0-0-|
C|-------------------------4-4-4-4-|
G|---------------------------------|
C|-0-2-1-0-3-2-0-2-1-3-2-1---------|

D|-----------------------------------------------------------------|
A|-----------------------------------------------------------------|
F|---------------------------------------------------0-0-0-0-0-0-0-|
C|---------------------------------------------------4-4-4-4-4-4-4-| 1,3
G|-0-2-1-0-3-2-0-1-0-2-1-0-3-2-1-2-1-0-2-1-3-2-0-1-0---------------|
C|-0-2-1-0-3-2-0-1-0-2-1-0-3-2-1-2-1-0-2-1-3-2-0-1-0---------------|
   * * * * * * *   * * * * * *       * * * * * * * * 

D|-----------------------------------------------------------------|
A|---------------------------------------------------3-3-3-3-3-3-3-|
F|---------------------------------------------------6-6-6-6-6-6-6-|
C|-----------------------------------------------------------------| 2,4
G|-0-2-1-0-3-2-0-1-0-2-1-0-3-2-1-2-1-0-2-1-3-2-0-1-0---------------|
C|-0-2-1-0-3-2-0-1-0-2-1-0-3-2-1-2-1-0-2-1-3-2-0-1-0---------------|
   * * * * * * *   * * * * * *       * * * * * * * * 

D|-------------------------------------------------------------------------|
A|-------------------------------------------------------------------------|
F|-------------------------------------------------------------------------|
C|-0------7p0-0-10--10-10-10-10-10-10-10-0------7p0-0-10--10-10-10-7-7-7-7-| 
G|-0----------0-8---8--8--8--8--8--8--8--0----------0-8---8--8--8--5-5-5-5-|
C|-0-10p0-----0-8---8--8--8--8--8--8--8--0-10p0-----0-8---8--8--8--5-5-5-5-|

D|------------------------------------------------------------------------------|
A|------------------------------------------------------------------------------|
F|------------------------------------------------------------------------------|
C|-0------7p0-0-10--10-10-10-10-10-10-10-7--7-7-7-7-7-7-10-10-10-10-10-10-10-10-| 
G|-0----------0-8---8--8--8--8--8--8--8--5--5-5-5-5-5-5-8--8--8--8--8--8--8--8--|
C|-0-10p0-----0-8---8--8--8--8--8--8--8--5--5-5-5-5-5-5-8--8--8--8--8--8--8--8--|

D|-----------------------------------------------------------------|
A|-----------------------------------------------------------------|
F|---------------------------------------------------0-0-0-0-0-0-0-|
C|---------------------------------------------------4-4-4-4-4-4-4-|
G|-0-2-1-0-3-2-0-1-0-2-1-0-3-2-1-2-1-0-2-1-3-2-0-1-0---------------|
C|-0-2-1-0-3-2-0-1-0-2-1-0-3-2-1-2-1-0-2-1-3-2-0-1-0---------------|
   * * * * * * *   * * * * * *       * * * * * * * * 

D|-----------------------------------------------------------------|
A|---------------------------------------------------3-3-3-3-3-3-3-|
F|---------------------------------------------------6-6-6-6-6-6-6-|
C|-----------------------------------------------------------------|
G|-0-2-1-0-3-2-0-1-0-2-1-0-3-2-1-2-1-0-2-1-3-2-0-1-0---------------|
C|-0-2-1-0-3-2-0-1-0-2-1-0-3-2-1-2-1-0-2-1-3-2-0-1-0---------------|
   * * * * * * *   * * * * * *       * * * * * * * * 

D|-------------------------------------------------------------------------|
A|-------------------------------------------------------------------------|
F|-------------------------------------------------------------------------|
C|-0------7p0-0-10--10-10-10-10-10-10-10-0------7p0-0-10--10-10-10-7-7-7-7-| 1,3
G|-0----------0-8---8--8--8--8--8--8--8--0----------0-8---8--8--8--5-5-5-5-|
C|-0-10p0-----0-8---8--8--8--8--8--8--8--0-10p0-----0-8---8--8--8--5-5-5-5-|

D|------------------------------------------------------------------------------|
A|------------------------------------------------------------------------------|
F|------------------------------------------------------------------------------|
C|-0------7p0-0-10--10-10-10-10-10-10-10-7--7-7-7-7-7-7-10-10-10-10-10-10-10-10-| 2,4
G|-0----------0-8---8--8--8--8--8--8--8--5--5-5-5-5-5-5-8--8--8--8--8--8--8--8--|
C|-0-10p0-----0-8---8--8--8--8--8--8--8--5--5-5-5-5-5-5-8--8--8--8--8--8--8--8--|

D|---------------------------------------------|
A|-------18-18-18-------18-18-18---18-18-18-18-|
F|-------21-21-21-------21-21-21---21-21-21-21-|
C|---------------------------------------------| x3
G|-0-0-0----------0-0-0----------0-------------|
C|-0-0-0----------0-0-0----------0-------------|
   * * *          * * *          *

D|----------------------------------|
A|-------18-18-18-----18------------|
F|-------21-21-21-----21-(Let ring)-|
C|----------------------------------|
G|-0-0-0----------0-0---------------|
C|-0-0-0----------0-0---------------|
   * * *          * *

D|------------------------------------------------------------------|
A|---------18---------18-----------------18---------18-----18-22-18-|
F|---------21---------21-----------------21---------21--21----------|
C|------------------------------------------------------------------| x2
G|-0--0--0----0--0--0----0-0-0-0-0--0--0----0--0--0-----------------|
C|-0--0--0----0--0--0----0-0-0-0-0--0--0----0--0--0-----------------|
   *  *  *    *  *  *    * * * * *  *  *    *  *  *

D|---------------------------------|
A|---------18---------18-----------|
F|---------21---------21-----------|
C|---------------------------------| x4
G|-0--0--0----0--0--0----0-0-0-0-0-|
C|-0--0--0----0--0--0----0-0-0-0-0-|
   *  *  *    *  *  *    * * * * *  

Slow down a bit ^^^

D|-------------------|----------------|-------------|-5------------|
A|-------10----10----|-13-----------5-|-----6---6---|-6------------|
F|----10----10----10-|----10------5---|---5---5---5-|-5-(Let ring)-|
C|-12----------------|-------12-7-----|-8-----------|-8------------|
G|-------------------|----------------|-------------|--------------|
C|------ x 3 --------|----------------|--- x3 ------|--------------|

Chorus pedal ^^^

D|-------------5--5--5-|-------------------------------|-------------------------------|
A|-------------6--6--6-|-------------------11----11----|------8h10p8---------8---------|
F|-------------5--5--5-|----------------10----10----10-|-9h10--------10-9h10---10-9h10-|
C|-------------8--8--8-|-------------13----------------|-------------------------------|
G|-0--0--0--0----------|-0--0--0--0--------------------|-------------------------------|
C|-0--0--0--0----------|-0--0--0--0--------------------|-------------------------------|
   *  *  *  *            *  *  *  *
   1,2,3,5,6,7 ^^^                   4^                           8^

D|---------------------------------------------------------------------------------|
A|---------------------------------------------------------------------------------|
F|-------------10--10-10-10-10-10--10-10-10-10-------------10--10-10-10-10---------|
C|-------------10--10-10-10-10-10--10-10-10-10-------------10--10-10-10-10---------| 1,3
G|-------------8---8--8--8--8--8---8--8--8--8--------------8---8--8--8--8----------|
C|-7-8-7-5-7-0-8---8--8--8--8--8---8--8--8--8--7-8-7-5-7-0-8---8--8--8--8--000-000-|
                                                                           *** ***

D|---------------------------------------------------------------------|
A|-------------------------------------------------4-----4-----4-----4-|
F|-------------10--10-10-10-10-10--10-10-10-10-----7-----7-----7-----7-|
C|-------------10--10-10-10-10-10--10-10-10-10-------------------------| 2,4
G|-------------8---8--8--8--8--8---8--8--8--8--------------------------|
C|-7-8-7-5-7-0-8---8--8--8--8--8---8--8--8--8--000---000---000---000---|
                                               ***   ***   ***   ***

D|---------------------|
A|-(4)-----------------|
F|-(7)-(Let ring)------|
C|-------------------1-|
G|-------------------1-|
C|-------------------1-|

D|----------------------------------|
A|----------------------------------|
F|----------------------------------|
C|----------------------------------|
G|----------------------------------|
C|-000-000-000-000-000-000-00-0-0-0-|
   *** *** *** *** *** *** ** * * *


-------------------------------------------------------------------------------
HEART BEATS COLD
-------------------------------------------------------------------------------

Renounced - heart beats cold (First guitar only)

Guitar 2 plays his riff once on his own

d|-13-------13-------13-------13-------13----------15-------13-------17-------15-------13----15----|
A|----15-------15-------15-------15-------15----15----15-------15-------15-------15-------15----15-|
F|-------14-------14-------14-------14-------14----------14-------14-------14-------14-------------|
C|-------------------------------------------------------------------------------------------------|
G|-------------------------------------------------------------------------------------------------|
C|-------------------------------------------------------------------------------------------------|

d|-12-------12-------12-------12-------12----------13-------12-------15-------13-------12----------|
A|----15-------15-------15-------15-------15----15----15-------15-------15-------15-------15----15-|
F|-------14-------14-------14-------14-------14----------14-------14-------14-------14-------14----|
C|-------------------------------------------------------------------------------------------------|
G|-------------------------------------------------------------------------------------------------|
C|-------------------------------------------------------------------------------------------------|

d|-13-------13-------13-------13-------13----------15-------13-------17-------15-------13----15----|
A|----15-------15-------15-------15-------15----15----15-------15-------15-------15-------15----15-|
F|-------14-------14-------14-------14-------14----------14-------14-------14-------14-------------|
C|-------------------------------------------------------------------------------------------------|
G|-------------------------------------------------------------------------------------------------|
C|-------------------------------------------------------------------------------------------------|

d|-12-------12-------12-------12-------12----------12-------12-------12-------12-------|
A|----15-------15-------15-------15-------15----14----15-------15-------15-------15----|
F|-------14-------14-------14-------14-------14----------14-------14-------14-------14-|
C|-------------------------------------------------------------------------------------|
G|-------------------------------------------------------------------------------------|
C|-------------------------------------------------------------------------------------|

d|---------------------------------------------------------------------8--6--5-|
A|-----------------------------------------------------------------------------|
F|---------7--7--7--7--7--7--7--7--7------------------7--7--7--7--7--7---------|
C|-5--7--0-5--5--5--5--5--5--5--5--5-5--7--0-5--5--5--5--5--5--5--5--5---------|
G|-5--7--0-6--6--6--6--6--6--6--6--6-5--7--0-6--6--6--6--6--6--6--6--6---------|
C|-5--7--0---------------------------5--7--0-6--6--6--6--6--6--6--6--6---------|

d|----------------------------------------------------------------|
A|----------------------------------------------------------------|
F|----------------------------------------------------------------|
C|----------------------------------------------------------------|
G|-5--5--5--5--555555-5--5--5--55--5--5--5--5--555555-5--5--5--55-|
C|-5--5--5--5--555555-5--5--5--55--5--5--5--5--555555-5--5--5--55-|
   *  *  *  *  ****** *  *  *  **  *  *  *  *  ****** *  *  *  **

d|------------------------------------------------------------------------------------|
A|------------------------------------------------------------------------------------|
F|-7--7--7--7--7--7--7--7--7--7--7--7--17--17--17--17--17--17-19--19--19--20--20--20--|
C|-5--5--5--5--5--5--5--5--5--5--5--5-------------------------------------------------|
G|-6--6--6--6--6--6--6--6--6--6--6--6--15--15--15--15--15--15-17--17--17--18--18--18--|
C|------------------------------------------------------------------------------------|

d|----------------------------------------------------------------|
A|----------------------------------------------------------------|
F|----------------------------------------------------------------|
C|----------------------------------------------------------------|
G|-5--5--5--5--555555-5--5--5--55--5--5--5--5--555555-5--5--5--55-|
C|-5--5--5--5--555555-5--5--5--55--5--5--5--5--555555-5--5--5--55-|
   *  *  *  *  ****** *  *  *  **  *  *  *  *  ****** *  *  *  **

d|--------------------------|
A|--------------------------|
F|------------------------7-|
C|-6-5-0-8-6-0-6-5-0------6-|
G|-6-5-0-8-6-0-6-5-0------5-|
C|-6-5-0-8-6-0-6-5-0-0000---|
               ****

d|---------------------------------|
A|---------------------------------|
F|---------------------------------|
C|-1--1-0---------1--1-0-----------| x8
G|-1--1-0---------1--1-0-32--1p0---|
C|-1--1-0--000000-1––1-0——-43—-—13-|
           ******        ***** ***

d|-------------------------------------------------------------------------------------------|
A|-------------------------------------------------------------------------------------------|
F|-------------------------------------------------------------------------------------------|
C|-1--1-0----1--1-0------1--1-0----1--1-0------1--1-0----1--1-0------1--1-0----1--1-0--------| x2
G|-1--1-0----1--1-0------1--1-0----1--1-0------1--1-0----1--1-0------1--1-0----1--1-0-0-0--0-|
C|-1--1-0-00-1--1-0-0000-1--1-0-00-1--1-0-0000-1--1-0-00-1--1-0-0000-1--1-0-00-1--1-0-0-0--0-|
          **        ****        **        ****        **        ****        **        * *  *

Pay careful attention to the timing on this bit ^^^

d|----------- x4 -|--------- x4 -|
A|----8----8------|----6---6-----|
F|------10---10---|------9---9---|
C|--------------0-|------------7-|
G|----------------|--------------|
C|-0-(Let ring)---|-0-(Let ring)-|

Chorus pedal ^^^

d|----------- x4 -|--------- x4 -|
A|---8----8-------|---6---6------|
F|-----10---10----|-----9---9----|
C|-------------10-|-----------7--| x2
G|----------------|--------------|
C|-8-(Let ring)---|-0-(Let ring)-|

Chorus pedal cont...^^^

d|---------------------------------------------------------------------------------------------------------|
A|---------------------------------------------------------------------------------------------------------|
F|-4--4-4-4-4-5--5-5-5-5-5--5-5-5-5-7--7-7-7-7-7--7-7-7-7-5--5-5-5-5-5--5-5-5-5-9--9-9-9-9-10--10-10-10-10-|
C|-2--2-2-2-2----------------------------------------------------------------------------------------------|
G|-2--2-2-2-2-3--3-3-3-3-3--3-3-3-3-5--5-5-5-5-5--5-5-5-5-3--3-3-3-3-3--3-3-3-3-7--7-7-7-7-8---8--8--8--8--|
C|-2--2-2-2-2----------------------------------------------------------------------------------------------|

d|----------------------------------------------------------------------------------------------8--------|
A|-----------------------------------------------------------------------------------------6-------6-----|
F|-12--12-12-12-12-12--12-12-12-12\10-10-10-10-10--10-10-10-10-9--9-9-9-9-9--9-9-9-9----9-----9-------9--|
C|-----------------------------------------------------------------------------------7-------------------|
G|-10--10-10-10-10-10--10-10-10-10\8--8--8--8--8---8--8--8--8--7--7-7-7-7-7--7-7-7-7---------------------|
C|——————————————————————————————————————————————————————————————————————————————————————————————————-————|

d|----------------------------------------------------------------------------------------------------------|
A|----------------------------------------------------------------------------------------------------------|
F|-16-16161616-17-1717171717-1717171717-1717171717-17171717-19-19191919-17-17171717-16-16161616-14-14141414-|
C|----------------------------------------------------------------------------------------------------------|
G|-14-14141414-15-1515151515-1515151515-1515151515-15151515-17-17171717-15-15151515-14-14141414-12-12121212-|
C|----------------------------------------------------------------------------------------------------------|

These aren't played faster, they are just bunched together for space issues ^^^

d|------------------------------------------------------------------------------------------------|
A|-----------------------------------------------------------------------12-10-------------8------|
F|-12--12-12-12-12-12--12-12-12-12-12-10-10-10-10--10-10-10-10------9----------9------9------9----|
C|---------------------------------------------------------------10---10-----------10---10-----10-|
G|-10--10-10-10-10-10--10-10-10-10-10-10-10-10-10--10-10-10-10-8----------------------------------|
C|-------------------------------------------------------------------------------7----------------|

d|-----------------------------------------------------------------------------------------------------------|
A|-----------------------------------------------------------------------------------------------------------|
F|-4--4-4-4-5-5-5-5-5-5--5-5-5-5-7--7-7-7-7-7--7-7-7-7-9--9-9-9-9-9--9-9-9-9-12--12-12-12-12-10--10-10-10-10-|
C|-2--2-2-2--------------------------------------------------------------------------------------------------|
G|-2--2-2-2-3-3-3-3-3-3--3-3-3-3-5--5-5-5-5-5--5-5-5-5-7--7-7-7-7-7--7-7-7-7-10--10-10-10-10--8--8--8--8--8--|
C|-2--2-2-2--------------------------------------------------------------------------------------------------|

d|---------- x6 --|-------------------------------|
A|----------------|-------------------------------|
F|-10p9------12p9-|-10p9-10p9-12p9-14p9-12p9-10p9-|
C|------10p9------|-------------------------------|
G|----------------|-------------------------------|
C|----------------|-------------------------------|

d|-------------------------------------------------------------------------------------------|
A|-------------------------------------------------------------------------------------------|
F|-10---999999999999999999999999-10p9-12p9-10p9-12p9-10p9-12p9-14p9-12p9-10p9-12p9-10p9-10p9-|
C|-------------------------------------------------------------------------------------------|
G|-------------------------------------------------------------------------------------------|
C|-------------------------------------------------------------------------------------------|

d|-------------------------------------------------------------------------------------------------------|
A|-------------------------------------------------------------------------------------------------------|
F|-10--9--------12-/14-14-12----------14--12--9------10--9---------12-/14-14--12----------14--17--16--14-|
C|--------10--9---------------14--15-------------10---------10--9-----------------14--15-----------------|
G|-------------------------------------------------------------------------------------------------------|
C|-------------------------------------------------------------------------------------------------------|

d|----------|----------|
A|-12-------|-15-------|
F|----15-15-|----18-18-|
C|----------|----------| x3
G|----------|----------|
C|--- x8 ---|--- x4 ---|

Guitar 2 on his own for a bit

d|-18-18--18-18--18-18--18-18-18-18----18----|
A|-22-22--22-22--22-22--22-22-22----22----22-|
F|-------------------------------------------|
C|-------------------------------------------| x4
G|-------------------------------------------|
C|-------------------------------------------|


--------------------------------------------------------------------------------------
ABANDON YOUR KING
--------------------------------------------------------------------------------------
This is just one guitar part

D|--------------------------------------------------------------------|
A|--------------------------------------------------------------------|
F|---7-----10----9--------9-10-9----9-----9-----9-----9-----7-----7---|
C|-----7------7----7---10--------10-----7---7-----7-----7-----7-----7-| 1,3
G|--------------------------------------------------------------------|
C|-8-----8------8----8----------------7-------7-----7-----7-----7-----|

D|----------------------------------------------------------------------------|
A|-----------------------------------------------------------------13---------|
F|---7-----10-----9--------9-10-9----9-----10-----9-----12-10-9-10----10-9-10-|
C|-----7------7-----7---10--------10-----7----7-----7-------------------------| 2,4
G|----------------------------------------------------------------------------|
C|-8-----8------8-----8----------------7--------7-----7-----------------------|

D|-------------------------------------------------|
A|-------------------------------------------------|
F|-------------------------------------12----------|
C|-10-------10-------10-------10----10----10----10-| x3
G|----12-12----12-12----12-12----12----------12----|
C|-------------------------------------------------|
   *   *  *  *  *  *  *  *  *  *  *  *     *  *  *

D|-------------------|
A|-------------------|
F|-12--10--9--7--7/9-|
C|-------------------|
G|-------------------|
C|-------------------|

D|-----------------------------------------------------------------------------------------|
A|-----------------------------------------------------------------------------------------|
F|-------------------------------------12--------------------------------------------------|
C|-10-------10-------10-------10----10----10----10-8-------8-------8-------8-------8-------| x3
G|----12-12----12-12----12-12----12----------12------12-12---12-12---12-12---12-12---10-10-|
C|-----------------------------------------------------------------------------------------|
   *   *  *  *  *  *  *  *  *  *  *  *     *  *  *    *  * *  * *  *  *  * *  *  * *  *  *

D|---------------------------------------------------------------------------------|
A|---------------------------------------------------------------------------------|
F|-------------------------------------12------------------------------------------|
C|-10-------10-------10-------10----10----10----10-8-------8-------8-------8-------|
G|----12-12----12-12----12-12----12----------12------12-12---12-12---12-12---12-12-|
C|---------------------------------------------------------------------------------|
   *   *  *  *  *  *  *  *  *  *  *  *     *  *  *    *  * *  * *  *  *  * *  *  * 

D|-------------------------------------------------------------------|
A|-------------------------------------------------------------------|
F|-------------------------------------------------------------------|
C|-2--1--3--2-----2-----2-----2-----2--1--3--1-----1-----1-----1-----| x3
G|-2--1--3--2-2-2-2-2-2-2-2-2-2-----2--1--3--1-1-1-1-1-1-1-1-1-1-----|
C|-2--1--3--2-2-2-2-2-2-2-2-2-2-222-2--1--3--1-1-1-1-1-1-1-1-1-1-111-|
              * *   * *   * *   ***            * *   * *   * *   ***

D|---------------------------------------------------------------------------|
A|-----------------------------------------------------------3-3-3-3-3-3-3-3-|
F|-----------------------------------------------------------3-3-3-3-3-3-3-3-|
C|-2--1--3--2-----2-----2-----2-----2--1--3------------------1-1-1-1-1-1-1-1-|
G|-2--1--3--2-2-2-2-2-2-2-2-2-2-----2--1--3--1-1-1-1-1-1-1-1-1-1-1-1-1-1-1-1-|
C|-2--1--3--2-2-2-2-2-2-2-2-2-2-222-2--1--3--1-1-1-1-1-1-1-1-1-1-1-1-1-1-1-1-|
              * *   * *   * *   ***            * * * * * * *

D|----------------- x2 -------------|--------------------------------------------------------------------|
A|-------11-11-11----------11-11-11-|--------------------------------------------------------------------|
F|-------14-14-14----------14-14-14-|-10-10-10-10-10-10-10-8-8-8-8-8-17-17-17-17-17-17-17-15-15-15-15-15-|
C|-------15-15-15----------15-15-15-|--------------------------------------------------------------------|
G|-0-0-0-13-13-13----------13-13-13-|-8--8--8--8--8--8--8--6-6-6-6-6-15-15-15-15-15-15-15-13-13-13-13-13-|
C|-0-0-0----------00000000----------|--------------------------------------------------------------------|
   * * *          ********

D|----------------- x2 -------------|------------------------------------------------------------------------|
A|-------11-11-11----------11-11-11-|------------------------------------------------------------------------|
F|-------14-14-14----------14-14-14-|10-10-10-10-10-10-10-12-12-12-12-12-17-17-17-17-17-17-17-15-15-15-15-15-|
C|-------15-15-15----------15-15-15-|------------------------------------------------------------------------|
G|-0-0-0-13-13-13----------13-13-13-|8--8--8--8--8--8--8--10-10-10-10-10-15-15-15-15-15-15-15-13-13-13-13-13-|
C|-0-0-0----------00000000----------|------------------------------------------------------------------------|
   * * *          ********

Repeat above two bars

D|---------------------------------|--------------------------------------------------------------------|
A|-----5---6p5---5-8p6-5-------5h6-|--------------------------------------------------------------------|
F|-------5-----5---------5---------|-10-10-10-10-10-10-10-8-8-8-8-8-17-17-17-17-17-17-17-15-15-15-15-15-|
C|---7-----------------------7-----|--------------------------------------------------------------------|
G|-8-----------------------8-------|-8--8--8--8--8--8--8--6-6-6-6-6-15-15-15-15-15-15-15-13-13-13-13-13-|
C|----------- x2 ------------------|--------------------------------------------------------------------|

D|---------------------------------|-------------------------------------------------|
A|-----5---6p5---5-8p6-5-------5h6-|-------------------------6-6-6-6-6-6-6-6-6-6-6-6-|
F|-------5-----5---------5---------|-------------------------8-8-8-8-8-8-8-8-8-8-8-8-|
C|---7-----------------------7-----|-1-1-1-1-1-1-1-1-1-1-1-1-8-8-8-8-8-8-8-8-8-8-8-8-|
G|-8-----------------------8-------|-1-1-1-1-1-1-1-1-1-1-1-1-------------------------|
C|----------- x2 ------------------|-1-1-1-1-1-1-1-1-1-1-1-1-------------------------|

D|-----------------------------------------------------------------|
A|-----------------------------------------------------------------|
F|-----------------------------------------------------------------|
C|-----------9-6-----6/9-------------------------------------------|
G|-0-0-0-0-5-----8-5--------1-3-1-0-0-0-0--------------------1-4-3-|
C|-0-0-0-0---------------00-1-3-1-0-0-0-0-----------------00-1-4-3-|
   * * * *               ** * * * * * * *                 ** * * *     

D|-----------------------------------------------------------------|
A|------------------------------------------12-9------9\6----------|
F|----------------------------------------7------10-7--------------|
C|-----------9-6-----6/9-------------------------------------------| x3
G|-0-0-0-0-5-----8-5--------1-3-1-0-0-0-0--------------------1-4-3-|
C|-0-0-0-0---------------00-1-3-1-0-0-0-0-----------------00-1-4-3-|
   * * * *               ** * * * * * * *                 ** * * *

D|----------------------------------------------------------------------------------------------------------|
A|------------------------------------------------------------5---------------------------------------------|
F|------------------------------------------------------------8-(ring out)----------------------------------|
C|-0--------------------------------------------------------------------------------------------------------|
G|-0-(ring out)---------------------------------------------------------------------------------------------|
C|-0--------------------------------------------------------------------------------------------------------|

D|-----------------------------------------------------------|
A|-----------------------------------------------------------|
F|-----------------------------------------------------------|
C|---------3---------4---------3-----------------------------| x8
G|-----------------------------------------------------------|
C|-0-1-0-0---0-1-0-0---0-1-0-0---0-0-4-3-1-1-4-3-1-1-0-0-1-3-|
   * * * *   * * * *   * * * *   * * * * * * * * * * * * * *

D|-play at the-|-- 1 --|------- 2 --------|-- 3 --|--- 4 ---|-- 5 --|-----6h9-----7h10-|-- 7 -|-- 8 --|
A|-start of ---|-------|------------------|-------|---------|-------|-5h8-----6h9------|------|-------|
F|-every bar---|-------|------------------|-------|---------|-------|------------------|------|-------|
C|-------------|-drums-|-----6h9-----7h10-|-drums-|-guitar -|-drums-|------------------|-stop-|-drums-|
G|-0-1-0-4-3-1-|-------|-5h8-----6h9------|-------|---2-----|-------|------------------|------|-------|
C|-0-1-0-4-3-1-|-------|------------------|-------|---------|-------|------ 6 ---------|------|-------|
   * * * * * *

D|-------------------------------------------------------------------------|
A|-------------------------------------------------------------------------|
F|-7--7-7-7-7-7-7-7-5-5-5-5-5-5-5-5-9--9-9-9-9-9-9-10-10-10-10-10-10-10-10-|
C|-------------------------------------------------------------------------| 1,3,7
G|-5--5-5-5-5-5-5-5-5-5-5-5-5-5-5-5-7--7-7-7-7-7-7-7--7--7--7--7--7--7--7--|
C|-------------------------------------------------------------------------|

D|-------------------------------------------------------------------|
A|-------------------------------------------------------------------|
F|-------------------------------------------------------------------|
C|-7--7-7-7-7-7-7-7-5-5-5-5-5-5-5-5-5--5-5-5-5-5-5-5-3-3-3-3-3-3-3-3-| 2,4,6,8
G|-3--3-3-3-3-3-3-3-3-3-3-3-3-3-3-3-1--1-1-1-1-1-1-1-1-1-1-1-1-1-1-1-|
C|-3--3-3-3-3-3-3-3-3-3-3-3-3-3-3-3-1--1-1-1-1-1-1-1-1-1-1-1-1-1-1-1-|

D|---------------------------------------------------------------------|
A|---------------------------------------------------------------------|
F|-7--7-7-7-7-7-7-7-5-5-5-5-5-5-5-5-9--9-9-9-9-9-9-12-10-9-9h10p9-7----|
C|------------------------------------------------------------------10-| 5
G|-5--5-5-5-5-5-5-5-5-5-5-5-5-5-5-5-7--7-7-7-7-7-7---------------------|
C|---------------------------------------------------------------------|

D|--------------|
A|--------------|
F|--------------|
C|-3------------|
G|-0-(Ring out)-|
C|-0------------|



----------------------------------------------------------------------
AS DELICATE AS MOTH WINGS
----------------------------------------------------------------------

Renounced - as gentle as moth wings (First guitar only)

Drums on their own for a bit...

D|--------------|
A|--------------|
F|--------------|
C|-6--5--3--5-5-|
G|-6--5--3--5-5-|
C|-6--5--3--5-5-|

D|---------------------------|
A|------------3--------------|
F|------------6--------------|
C|-2--3--2--0---6--5--3--5-5-| x3
G|-2--3--2--0---6--5--3--5-5-| 
C|-2--3--2--0---6--5--3--5-5-|

D|-------------------------|
A|------------3------------|
F|------------6------------|
C|-2--3--2--0---6--5--3--5-|
G|-2--3--2--0---6--5--3--5-|
C|-2--3--2--0---6--5--3--5-|

D|--------------------------|
A|-----------3--------------|
F|-----------6--------------|
C|-2-3-2-------6--5--3--5-5-| x4
G|-2-3-2-0-0---6--5--3--5-5-|
C|-2-3-2-0-0---6--5--3--5-5-|
         * *

D|-------------------------------------------------------------|
A|-------------------------------------------------------------|
F|-------------------------------------------------------------|
C|-2------------2/1-----------3----2------------2/1-------1--1-| x2
G|-2--2-2-2-2-3-----2-1-0-1-2------2--2-2-2-2-3-----2-1-0-1--1-|
C|-2--2-2-2---------------------00-2--2-2-2---------------1--1-|
      * * * * *     * * * * * * **    * * * * *     * * *

D|--------------------------------------------------------------------|
A|--------------------------------------------------------------------|
F|--------------------------------------------------------------4*-4*-|
C|-0-----0---0-0-0-0-0-0-0-0-0-0-0-----------0-0-0-0-0-0-0-0-5*-------|
G|-0-0-0-0-0-6-6-6-6-6-6-6-6-6-6-6-----------4-4-4-4-4-4-4-4----------|
C|-0-0-0-0-0-----------------------000000000--------------------------|
     * *   *                       *********

D|-----------------------------------------------------------------|
A|-----------------------------------------------------------------|
F|-----------------------------------------------------------------|
C|-0-----0---0-0-0-0-0-0-0-0-0-0-0-----------0-0-0-0-0-0-0-0-0-0-0-|
G|-0-0-0-0-0-6-6-6-6-6-6-6-6-6-6-6-----------4-4-4-4-4-4-4-4-4-4-4-|
C|-0-0-0-0-0-----------------------000000000-----------------------|
     * *   *                       *********

D|-------------------------------------------------------------|
A|-------------------------------------------------------------|
F|-------------------------------------------------------------|
C|-2------------2/1-----------3----2------------2/1-------1--1-| x2
G|-2--2-2-2-2-3-----2-1-0-1-2------2--2-2-2-2-3-----2-1-0-1--1-|
C|-2--2-2-2---------------------00-2--2-2-2---------------1--1-|
      * * * * *     * * * * * * **    * * * * *     * * *

D|--------------------------------------------------------------------|
A|--------------------------------------------------------------------|
F|--------------------------------------------------------------4*-4*-|
C|-0-----0---0-0-0-0-0-0-0-0-0-0-0-----------0-0-0-0-0-0-0-0-5*-------|
G|-0-0-0-0-0-6-6-6-6-6-6-6-6-6-6-6-----------4-4-4-4-4-4-4-4----------|
C|-0-0-0-0-0-----------------------000000000--------------------------|
     * *   *                       *********

D|-----------------------------------------------------------------|
A|-----------------------------------------------------------------|
F|-----------------------------------------------------------------|
C|-0-----0---0-0-0-0-0-0-0-0-0-0-0-----------0-0-0-0-0-0-0-0-0-0-0-|
G|-0-0-0-0-0-6-6-6-6-6-6-6-6-6-6-6-----------4-4-4-4-4-4-4-4-4-4-4-|
C|-0-0-0-0-0-----------------------000000000-----------------------|
     * *   *                       *********

D|--------------------------------|
A|--------------------------------|
F|--------------------------------|
C|------------------------------1-|
G|--------------------------0-0-1-|
C|-00000-0--0--00000-00000--0-0-1-|
   ***** *  *  ***** *****  * *

D--------------------------|
A|-------------------------|
F|-------------------------|
C|-------------------------| x2
G|-------------------------|
C|-00000-0--0--00000-00000-|
   ***** *  *  ***** *****  

D|--------------------------------------------------------------------|
A|--------------------------------------------------------------------|
F|-----7-------8-------7-------8-------7-------8----------------------|
C|-5-8---8-6-9---9-5-8---8-6-9---9-5-8---8-6-9---9-(bass on It's own)-|
G|--------------------------------------------------------------------|
C|--------------------------------------------------------------------|

D|-----------------------|
A|---------7-----7----7--|
F|---------10----10---10-|
C|-----------------------| x4
G|-----------------------|
C|-00000-------0----0----|
   *****       *    *
Slowed down slightly ^^^

D|-------------------------------------------------------------------------------------------5-3-2-3-2h3p2---|
A|-3--3-3-3-3-5-5-5--3-3-3-7--7-8-77-10-8-7-7--7-7-7-3--3-3-3-3-5-5-5-3--3-3-3-----------------------------3-|
F|-4--4-4-4-4-4-4-4--4-4-4------------------9--9-9-9-4--4-4-4-4-4-4-4-4--4-4-4-------------------------------|
C|-----------------------------------------------------------------------------------------------------------|
G|-3--3-3-3-3-3-3-3--3-3-3-7--7-7-77-7--7-7-7--7-7-7-3--3-3-3-3-3-3-3-3--3-3-3-------------------------------|
C|-----------------------------------------------------------------------------2222222222222-----------------|
                                                                               *************

D|----------------------------------0------------------------------------|
A|--------------------------------3---3----------------------------------|
F|------2------2----4----4------4----------------------------------------| 1,3
C|-----------------------------------------------------------------------|
G|-3333---3333---33---33---3333------------------------------------------|
C|--------------------------------------22222222222222222222222222222222-|
                                        ********************************

D|----------------------------------0--------------------5--5-5-5-5-5-5-5-5-|
A|--------------------------------3---3------------------7--7-7-7-7-7-7-7-7-|
F|------2------2----4----4------4------------------------7--7-7-7-7-7-7-7-7-|
C|-------------------------------------------------------5--5-5-5-5-5-5-5-5-| 2
G|-3333---3333---33---33---3333--------------------------5--5-5-5-5-5-5-5-5-|
C|--------------------------------------2222222222222222--------------------|
                                        ****************

D|----------------------------------0---7-7-7-7-7-7-7-7-7-7-7-7-7-7-7-7-4--4--4--4--4--4--4-4-|
A|--------------------------------3---3-7-7-7-7-7-7-7-7-7-7-7-7-7-7-7-7-4--4--4--4--4--4--4-4-|
F|------2------2----4----4------4-------9-9-9-9-9-9-9-9-9-9-9-9-9-9-9-9-6--6--6--6--6--6--6-6-|
C|--------------------------------------9-9-9-9-9-9-9-9-9-9-9-9-9-9-9-9-6--6--6--6--6--6--6-6-| 4
G|-3333---3333---33---33---3333---------7-7-7-7-7-7-7-7-7-7-7-7-7-7-7-7-4--4--4--4--4--4--4-4-|
C|--------------------------------------------------------------------------------------------|
                              
D|------------------------------------------------------------4--------------------------7--4----------|
A|------5---9--5-------------5-----9--5-----------------4--------4-----------------4-----------4-----4-|
F|----8---8------8---8----8-----8--------8-----8-----6-----6--------6-----6-----6-----6-----------6----|
C|-9---------------9----8-------------------9-----6--------------------6-----6-------------------------| x3
G|-----------------------------------------------------------------------------------------------------|
C|-----------------------------------------------------------------------------------------------------|

Chorus pedal ^^^

D|-7--7-7-7-7-7-7-7-7-7-7-7-7-7-7----------------------|
A|-7--7-7-7-7-7-7-7-7-7-7-7-7-7-7----------------------|
F|-9--9-9-9-9-9-9-9-9-9-9-9-9-9-9----------------------|
C|-9--9-9-9-9-9-9-9-9-9-9-9-9-9-9-6---5-----------2--3-|
G|-7--7-7-7-7-7-7-7-7-7-7-7-7-7-7-6---5---3-5-3-0-2--3-|
C|--------------------------------6---5---3-5-3-0-2--3-|
                                          * * * *

D|------------------------------------------------------------------------|
A|-----------7----------7----------7------------7----------7------7----7--|
F|-----------10---------10---------10-----------10---------10-----10---10-|
C|------------------------------------------------------------------------|
G|-2-3-2-0-0----0-3-2-0----0-2-0-0----0-2-3-2-0----0-3-2-0----0-0----0----|
C|-2-3-2-0-0----0-3-2-0----0-2-0-0----0-2-3-2-0----0-3-2-0----0-0----0----|
         * *    * * * *    * * * *    * * * * *    * * * *    * *    *
Timing on this bit is very tricky ^^^

D|------------------------------------------------------------------|
A|------------------------------------------------------------------|
F|------------------------------------------------------------------|
C|------------------------------------------------------4h7p4---8---|
G|----0-0-0-0-----0-0-0--0-0-0-1-----0-0-0-0--------5-8-------0-10--|
C|-00-0-0-0-0--00-0-0-0--0-0-0-1--00-0-0-0-0-00-4-7-----------0-----|
   ** * * * *  ** * * *  * * *    ** * * * * **               *

D|-------------------------------------------------------------------------|
A|---------------------------------------------------------15----------14--|
F|------------------------------------------------------14----------13-----|
C|-77-7-7-7-7--77-7-7-7--7-7-7-8---77-7-7-7-7--77----15----------15--------|
G|-99-9-9-9-9--99-9-9-9--9-9-9-10--99-9-9-9-9--99-17----------16-----------|
C|-------------------------------------------------------------------------|

D|-----------------------------------------------------------------|
A|-----------------------------------------------------------------|
F|-----------------------------------------------------------------|
C|------------------------------------------------------4h7p4---1--| x2
G|----0-0-0-0-----0-0-0--0-0-0-1-----0-0-0-0--------5-8-------0-1--|
C|-00-0-0-0-0--00-0-0-0--0-0-0-1--00-0-0-0-0-00-4-7-----------0-1--|
   ** * * * *  ** * * *  * * *    ** * * * * **               *

D|------------|
A|------------|
F|------------|
C|------------|
G|----0-0-0-0-|
C|-00-0-0-0-0-|
   ** * * * *   



------------------------------------------------------------------------------------
THE FRAGILITY OF LIFE
------------------------------------------------------------------------------------

D|------3-----------------------3---------------------------------------------------------------------------|
A|--------6-----------------------6-----------------------8---------------------------8---------------------|
F|----3-----3-----3-7-3-------3-----3-----3-7-3--------10---10--------7-8-7--------10---10--------7-12------|
C|--5-----------5-------5---5-----------5-------5----8---------8----8-------8----8---------8----8------12---|
G|6-----------6-----------6-----------6---------------------------------------------------------------------|
C|-----------------------------------------------10-------------10-----------10-------------10-----------10-|

D|-----------------------------------------------------|
A|--------8------------4------------8------4-----4-----|
F|-----10---10-------7---7-------10---10-----7-----7---|
C|---8---------8---8-------8---8---------8-----8-----7-|
G|-----------------------------------------------------|
C|-6-------------6-----------6-------------------------|

Above two bars x2

D|------------------------------------------------------------------------------------------------|
A|-------4-----------4-----------4---------3---3-----3-------3---3---5p3----3-------3---3---5p3---|
F|---7-----7-----7-----7-----7-----7-------------------0---0-------0-----0----0---0-------0-----0-|
C|-----8-----8-----8-----8-----8-----8---2-------0-------4----------------------4-----------------| 1,3
G|-6-----------6-----------6-----------3----------------------------------------------------------|
C|-------------------------------------------4-----5-----------5-----------5----------5-----------|

D|------------------------------------------------------------------------------------------------|
A|-------4-----------4-----------4---------3------3--3-------3---3---5p3----3-------3---3---5p3---|
F|---7-----7-----7-----7-----7-----7-------------------0---0-------0-----0----0---0-------0-----0-| 2,4
C|-----8-----8-----8-----8-----8-----8---2-----0---------4----------------------4-----------------|
G|-6-----------6-----------6-----------3----------------------------------------------------------|
C|-------------------------------------------4-----5-----------5-----------5----------5-----------|

D|------3-----------------------3---------------------------------------------------------------------------|
A|--------6-----------------------6-----------------------8---------------------------8---------------------|
F|----3-----3-----3-7-3-------3-----3-----3-7-3--------10---10--------7-8-7--------10---10--------7-12------|
C|--5-----------5-------5---5-----------5-------5----8---------8----8-------8----8---------8----8------12---|
G|6-----------6-----------6-----------6---------------------------------------------------------------------|
C|-----------------------------------------------10-------------10-----------10-------------10-----------10-|

D|-----------------------------------------------------|
A|--------8------------4------------8------4-----4-----|
F|-----10---10-------7---7-------10---10-----7-----7---|
C|---8---------8---8-------8---8---------8-----8-----7-|
G|-----------------------------------------------------|
C|-6-------------6-----------6-------------------------|

Above two bars x2

D|--------------------------------------3-------------|
A|-4------3----------------------4------3------4------|
F|-3------3------8-------7-------3------3------3------|
C|-5------5------10------8-------5------5------5------|
G|-6------6----------------------6------6------6------|
C|---------------10------10---------------------------|

Ring out each chord



----------------------------------------------------------------
ANXIETY IN BLACK AND WHITE
----------------------------------------------------------------

I've tabbed just one guitar part

D|---------------------------------|
A|---------------------------------|
F|-----------------------2-5-----2-|
C|-------------------4-3-----4-3---| x3
G|---------------------------------|
C|-000-000-000-000-0---------------|
   *** *** *** *** *

D|----------------------|
A|-----------------5----|
F|-----------------8----|
C|----------------------|
G|----------------------|
C|-000-000-000-000------|
   *** *** *** ***

D|-----------------------------------------------------------------|
A|-----------------------------------------------------16----------|
F|-----------------------------------------------19-------19----19-|
C|--------------------------------------------19----19-------19----| x3
G|-0-0-0-----0---0-----3--2--1-0-0-0-----0--0----------------------|
C|-0-0-0-000-0---0-000-5--4--3-0-0-0-000-0--0----------------------|
   * * * *** *   * ***         * * * *** *  *

D|----------------------------------------------------13h17p13------------|
A|--------------------------------------------------15--------15----------|
F|------------------------------------------------14-------------14-------|
C|----------------------------------------------15------------------15----|
G|-0-0-0-----0---0-----3--2--1-0-0-0-----0--0-17-----------------------17-|
C|-0-0-0-000-0---0-000-5--4--3-0-0-0-000-0--0-----------------------------|
   * * * *** *   * ***         * * * *** *  * s  w  e  e  p    p  i  c  k 

D|-----------------------------------------------------------------------------------|
A|-----------------------------------------------------------------------------------|
F|-777777-10-8-7-121212-555555-333333-777777-10-8-7-121212-151515151515-141414141414-|
C|-----------------------------------------------------------------------------------|
G|-555555-8--6-5-101010-333333-111111-555555-8--6-5-101010-131313131313-131313131313-|
C|-----------------------------------------------------------------------------------|

D|-----------------------------------------------------------------------------------------------|
A|-----------------------------------------------------------------------------------------------|
F|-777777-10-8-7-121212-555555-333333-10-8-7-12-10-8-7-8-10-8-7-8-5--5-5-5-5-5-5-3-3-3-3-3-3-3-3-|
C|-----------------------------------------------------------------------------------------------|
G|-555555-8--6-5-101010-333333-111111-8--6-5-10-8--6-5-6-8--6-5-6-3--3-3-3-3-3-3-1-1-1-1-1-1-1-1-|
C|-----------------------------------------------------------------------------------------------|

D|-------------------------|
A|-------------16----------|
F|----19----19----19----19-|
C|-19----19----------19----| x8
G|-------------------------|
C|-------------------------|

D|------------------------------------------------------------------|
A|------------------------------------------------------------------|
F|------------------------------------------------------------------|
C|-------------------4-------------4--------------------------------| x2
G|-0-0-0-0-0-0-0-0-1---0-0-0-0-0-1---0-0-0-0-0-0-0-0-0-0-0-3--2--1--|
C|-0-0-0-0-0-0-0-------0-0-0-0-0-------0-0-0-0-0-0-0-0-0-0-5--4--3--|

D|--------------------------------------------|
A|-----------8--8--8--8--8--8--8--8--8--8--8--|
F|-----------11-11-11-11-11-11-11-11-11-11-11-|
C|--------------------------------------------| x4
G|--------------------------------------------|
C|-000000000----------------------------------|
   *********

D|-------------------------------------------------|
A|-------------------------------------------------|
F|-12----------12----------10----------10----------|
C|----15-12-15----15-12-15----12-10-12----12-10-12-|
G|-------------------------------------------------|
C|-------------------------------------------------|

D|-------------------------------------------------------------|
A|----------6--------------6--------------6--------------6-----|
F|-----7------7-------7------7---------7----7---------7----7---|
C|-------8------8-------8------8-----8--------8-----8--------8-| x3
G|-10-------------10-------------10-------------10-------------|
C|-------------------------------------------------------------|

D|-------------------------------------------------------------------------------------------------------|
A|----------6--------------6-----------------------------------------------------------------------------|
F|-----7------7-------7------7---------------------------------------------------------------------------|
C|-------8------8-------8------8-1-1-1-1-1-1-1-1-1-1-1-1-1-1-1-13-13-13-13-13-13-13-13-13-13-13-13-13-13-| 
G|-10-------------10-------------1-1-1-1-1-1-1-1-1-1-1-1-1-1-1-13-13-13-13-13-13-13-13-13-13-13-13-13-13-|
C|-------------------------------1-1-1-1-1-1-1-1-1-1-1-1-1-1-1-13-13-13-13-13-13-13-13-13-13-13-13-13-13-|

D|------------------------------------------------------------------|
A|---16---16-------16---16-------16---16-------8--8--8--8--8--8--8--|
F|---19---19-------19---19-------19---19-------11-11-11-11-11-11-11-|
C|------------------------------------------------------------------| x2
G|-0----0--------0----0--------0----0--------0----------------------|
C|-0----0----000-0----0----000-0----0----000-0----------------------|
   *    *    *** *    *    *** *    *    *** *

D|--------------18-----------------------------18------------------------|
A|---16---16----22---16---16--------16---16----22---8--8--8--8--8--8--8--|
F|---19---19---------19---19--------19---19---------11-11-11-11-11-11-11-|
C|-----------------------------------------------------------------------| x2
G|-0----0----------0----0-------1-0----0----------0----------------------|
C|-0----0----00----0----0----00-1-0----0----00----0----------------------|
   *    *    **    *    *    **   *    *    **    *

D|--------------18--------------------------------|
A|---16---16----22---16---16--------16---16-------|
F|---19---19---------19---19--------19---19-------|
C|------------------------------------------------| 
G|-0----0----------0----0-------1-0----0----------|
C|-0----0----00----0----0----00-1-0----0----000---|
   *    *    **    *    *    **   *    *    ***


--------------------------------------------------------------------------------------
ONLY OURSELVES TO BLAME
--------------------------------------------------------------------------------------

* = palm mute

D|---------------------------------------------------------------|
A|---------------------------------------------------------------|
F|---------------------------------------------------------------|
C|-----5-8-----4-7-------------------5-8-----4-7-----------------| x2
G|-0-0-----0-0-----0-0-----3-----0-0-----0-0---------------------|
C|-0-0-----0-0-----0-0-3-6---6-1-0-0-----0-0-----444-333-222-333-|
   * *     * *     * * * * * *   * *     * *     *** *** *** ***

    D|-------------------------------------------------|
    A|-------------------------------------------------|
GTR F|-----------------6-------7-----------------------|
 1  C|-------------5-8-----6-9-------------------------| x2
    G|-0--0--0-0-0-------0--------0--0--0-0-0-6---1----|
    C|-0--0--0-0-0-------0--------0--0--0-0-0-8---3----|
       *  *  * * *       *        *  *  * * *

    D|-------------------------------------------------|
    A|-------------------------------------------------|
GTR F|-------------------------------------------------|
 2  C|-----------------6-------7-----------------------| x2
    G|-0--0--0-0-0-5-8---0-6-9----0--0--0-0-0-6---1----|
    C|-0--0--0-0-0-------0--------0--0--0-0-0-8---3----|
       *  *  * * *       *        *  *  * * *

D|-------------- 1,3 -------------------------------------|----- 2 --------|------ 4 ---------|
A|--------------------------------------------------------|----------------|------------------|
F|--------------------------------------------------------|----------------|------------------|
C|-2------2------2---3------3-------3---2------2------2---|----------------|------------------|
G|-2--2-2-2--2-2-2-2-3--3-3-3--3-3--3-3-2--2-2-2--2-2-2-2-|----------------|------------------|
C|-2--2-2-2--2-2-2-2-3--3-3-3--3-3--3-3-2--2-2-2--2-2-2-2-|-000000--000000-|-0000000000000000-|
      * *    * *   *    * *    * *    *    * *    * *   *   ******  ******   ****************

    D|-----------------3-------------3---------------------3------------------|
    A|---------------5-----------------5-----------------5--------8--------8--|
GTR F|-------------4---------------------5-------------4----------10-------10-|
 1  C|-2------2----------3------3----------2------2---------------10-------10-| x4
    G|-2--2-2-2--2-------3--3-3-3--3-------2--2-2-2--2------------------------|
    C|-2--2-2-2--2-------3--3-3-3--3-------2--2-2-2--2-------0000-----0000----|
          * *    *          * *    *          * *    *       ****     ****

    D|-3-----3-----3---3-----3-----3---3-----3-----3-------------------|
    A|---5-----5-----5---5-----5-----5---5-----5-----5-----------------|
GTR F|-----4-----4---------5-----5---------4-----4---------------------|
 2  C|------------------------------------------------------3-------3--| x4
    G|------------------------------------------------------3-------3--|
    C|-------------------------------------------------0000-3--0000-3--|
                                                       ****    ****

    D|-----------|
    A|-8---------|
GTR F|-10--------|
 1  C|-10--------|
    G|-----------|
    C|-----00-00-|
           ** **

    D|----------|
    A|----------|
GTR F|----------|
 2  C|-3--------|
    G|-3--------|
    C|-3--00-00-|
          ** **

    D|----------------------------------------------------------|
    A|----------------------------------------------------------|
GTR F|----------------------------------------------------------|
 1  C|----------------------------1---------------1--t14p8-15p8-| x4
    G|----------------------------1---------------1-------------|
    C|---00-00--00-00--00000-0-00-1--00-00--00-00-1-------------|
         ** **  ** **  ***** * **    ** **  ** **

    D|----------------------------------------------------------|
    A|----------------------------------------------------------|
GTR F|----------------------------------------------------------|
 2  C|----------------------------1---------------1-------------| x4
    G|----------------------------1---------------1-(Ring out)--|
    C|---00-00--00-00--00000-0-00-1--00-00--00-00-1-------------|
         ** **  ** **  ***** * **    ** **  ** **

    D|------------------------|
    A|------------------------|
GTR F|-t12----p5-/7--/8--/10--|
 1  C|------------------------|
    G|------------------------|
    C|------------------------|

    D|------------------------|
    A|------------------------|
GTR F|------------------------|
 2  C|-5----------------------|
    G|-5-(Ring out)-----------|
    C|-5----------------------|

    D|---------------------------------------|
    A|---------------------------------------|
GTR F|-/12-(ring out into feedback)----------|
 1  C|---------------------------------------|
    G|---------------------------------------|
    C|---------------------------------------|

    D|---------------------------------------|
    A|---------------------------------------|
GTR F|---------------------------------------|
 2  C|----------------------------------1----| x2
    G|-0-0-0--0--0--0-3-0-4--0-0-0--0-0-1----|
    C|-0-0-0--0--0--0-5-0-6--0-0-0--0-0-1----|
       * * *  *  *  *   *    * * *  * *

    D|-------0---------------0-------------0--------------0--------|
    A|-----6----6---------6----6---------6----6---------6----6-----|
GTR F|---5--------5-----5--------5-----5--------5-----5--------5---|
 1  C|-7------------7-7------------7-8------------8-8------------8-| x4
    G|-------------------------------------------------------------|
    C|-------------------------------------------------------------|

    D|---------------------------------------|
    A|---------------------------------------|
GTR F|---------------------------------------|
 2  C|----------------------------------1----| x4
    G|-0-0-0--0--0--0-3-0-4--0-0-0--0-0-1----|
    C|-0-0-0--0--0--0-5-0-6--0-0-0--0-0-1----|
       * * *  *  *  *   *    * * *  * *

    D|-------0-----------0-----------0-----------0-----------0-----------0-----------0-----8-----6-----|
    A|-----6---6-------6---6-------6---6-------6---6-------6---6-------6---6-------6---6-----6-----6---|
GTR F|---5-------5---5-------5---5-------5---5-------5---5-------5---5-------5---5-------5-----5-----5-|
 1  C|-7-----------8-----------------------------------7-----------8-----------0-----------------------| x2
    G|-------------------------7-----------8-----------------------------------------------------------|
    C|-------------------------------------------------------------------------------------------------|

    D|-------------------------------------------------------------------------------------------------|
    A|-------------------------------------------------------------------------------------------------|
GTR F|-------------------------------------------------------------------------------------------------|
 2  C|-------------------------------------------------------------------------------------------------|
    G|-------------------------------------------------------------------------------------------------|
    C|-------------------------------------------------------------------------------------------------|

    D|-------0-----------0-----------0-----------0-----------0-----------0-----------0-----8-----6-----|
    A|-----6---6-------6---6-------6---6-------6---6-------6---6-------6---6-------6---6-----6-----6---|
GTR F|---5-------5---5-------5---5-------5---5-------5---5-------5---5-------5---5-------5-----5-----5-|
 1  C|-7-----------8-----------------------------------7-----------8-----------0-----------------------| x6
    G|-------------------------7-----------8-----------------------------------------------------------|
    C|-------------------------------------------------------------------------------------------------|

    D|--------------------------------------------------------------------------5-----------5----------|
    A|--------------------------------------------------------------------------6--------------6-------|
GTR F|--------------------------------------------------------------------------5-----------------5----|
 2  C|-10----------10----------5-----------7-----------10----------10-----------0----------------------| x6
    G|-7-----------8-----------2-----------3-----------7-----------8-----------------------------------|
    C|-7-----------8-----------2-----------3-----------7-----------8-----------------------------------|

D|--------------|
A|--------------|
F|--------------|
C|-0------------|
G|-0-(Ring out)-|
C|-0------------|



----------------------------------------------------------------------------
MY LAST DYING WISH
----------------------------------------------------------------------------

   D|-----------------------------------------------------------------------|
    A|--------10------------10------------10------------10------------10-----|
GTR F|------7----7--------7----7--------7----7--------7----7--------7----7---|
 1  C|----8--------8----8--------8----8--------8----8--------8----8--------8-| x2
    G|-10------------10------------10------------10------------10------------|
    C|-----------------------------------------------------------------------|

    D|-----------------------------------------------------------------------|
    A|-----------------------------------------------------------------------|
GTR F|-12-------------8-------------5-------------7-------------8------------|
 2  C|-----------------------------------------------------------------------| x2
    G|-10-------------6-------------3-------------5-------------6------------|
    C|-----------------------------------------------------------------------|

    D|--------------|
    A|--------------|
GTR F|--------------|
 1  C|--------------|
    G|--------------|
    C|-00-1-0-4-1-0-|
       ** * * * * *

    D|----------------------------------------------------------------------------------|
    A|----------------------------------------------------------------------------------|
GTR F|----------------------------------------------------------------------------------|
 1  C|----------------------------------------------------------------------------------| x2
    G|---------------0-0------------------0-0--0---------------0-0---------------0-0--0-|
    C|-00-1-0-4-1-0--0-0----00-1-0-4-1-0--0-0--0-00-1-0-4-1-0--0-0----00-1-0-4-1-0-0--0-|
       ** * * * * *  * *    ** * * * * *  * *  * ** * * * * *  * *    ** * * * * * *  *

    D|-6666666666666666-5555555555555555-6666666666666-8-8-8--333333-5555555555-|
    A|--------------------------------------------------------------------------|
GTR F|-8888888888888888-7777777777777777-8888888888888-101010-555555-7777777777-|
 2  C|--------------------------------------------------------------------------| x2
    G|--------------------------------------------------------------------------|
    C|--------------------------------------------------------------------------|

D|--------------------------------------------------------|
A|--------------------------------------------------------|
F|--------------------------------------------------------|
C|--------4-1--------4-1------2-1------------0------------|
G|---------------------------------------0h1-0-(Ring out)-|
C|-00-1-0-----0-1-0------0-1------0-1--0-0h1-0------------|
   ** * *     * * *      * *      * *  * *

    D|----------------------------------------------------------------------7-----5-----|   
    A|----------------------------------------------------------------9-------9-----9---|
GTR F|--------------------------------------------------------------6---6-------6-----7-|
 1  C|-0----------------------3---------------0-------------------7-------7-------------| x4
    G|-0-------1---------3---------4----------0-------1---------9-----------------------|
    C|-0-00000---00-3-00---00---00---00-4-3-1-0-00000---00-3-00-------------------------|
         *****   **   **   **   **   ** * * *   *****   **   **

    D|----------------------------------------------------------------------------------------|   
    A|----------------------------------------------------------------------------------------|
GTR F|----------------------------------------------------------11-11-11-11-11-11-7-7-7-7-7-7-|
 1  C|-0----------------------3---------------0-----------------------------------------------| x4
    G|-0-------1---------3---------4----------0-------1---------9--9--9--9--9--9--5-5-5-5-5-5-|
    C|-0-00000---00-3-00---00---00---00-4-3-1-0-00000---00-3-00-------------------------------|
         *****   **   **   **   **   ** * * *   *****   **   **

D|------------------------------------------|
A|------------------------------------------|
F|-------11--------14--------13---------16--|
C|------------------------------------------| x2
G|-0-0-0-9---0-0-0-12--0-0-0-11--0-0-0--14--|
C|-0-0-0-----0-0-0-----0-0-0-----0-0-0------|
   * * *     * * *     * * *     * * * 

GTR 1

D|---------------------------------------------------------6-----6-----6-----6-----6-----6-----6-----6-----|
A|--------10------------10------------10------------10-----------------------------------------------------|
F|------7----7--------7----7--------7----7--------7----7-----8-8---8-8---8-8---8-8---8-8---8-8---8-8---8-8-|
C|----8--------8----8--------8----8--------8----8--------8-------------------------------------------------|
G|-10------------10------------10------------10------------------------------------------------------------|
C|---------------------------------------------------------------------------------------------------------|

GTR 2

D|-------------------------------------------------------------------------------------------------|
A|-------------------------------------------------------------------------------------------------|
F|-------------------------------------------------------------------------------------------------|
C|-5-5-5-5-5-5-5-5-5-5-5-5-5-5-5-5-5-5-5-5-5-5-5-5-8-8-8-8-8-8-8-8-8-8-8-8-8-8-8-8-8-8-8-8-8-8-8-8-|
G|-5-5-5-5-5-5-5-5-5-5-5-5-5-5-5-5-5-5-5-5-5-5-5-5-8-8-8-8-8-8-8-8-8-8-8-8-8-8-8-8-8-8-8-8-8-8-8-8-|
C|-5-5-5-5-5-5-5-5-5-5-5-5-5-5-5-5-5-5-5-5-5-5-5-5-8-8-8-8-8-8-8-8-8-8-8-8-8-8-8-8-8-8-8-8-8-8-8-8-|

D|------------------------------------------|
A|------------------------------------------|
F|-------11--------14----13---13---------16-|
C|------------------------------------------| 
G|-0-0-0-9---0-0-0-12--0-11-0-11--0-0-0--14-|
C|-0-0-0-----0-0-0-----0----0-----0-0-0-----|
   * * *     * * *     *    *     * * * 

    D|----------------------2---------2---------2--|
    A|----------------------5---------5---------5--|
GTR F|----------------------4---------4---------4--|
 1  C|---------------------------------------------| x2
    G|---------------------------------------------|
    C|-00-0-0-00-0-0-00-0-0----00-0-0----00-0-0----|
       ** * * ** * * ** * *    ** * *    ** * *

    D|---------------------------------------------|
    A|---------------------------------------------|
GTR F|----------------------11---------11-------11-|
 12  C|---------------------7----------7--------7--| x2
    G|----------------------9----------9--------9--|
    C|-00-0-0-00-0-0-00-0-0----00-0-0----00-0-0----|
       ** * * ** * * ** * *    ** * *    ** * *

    D|----------------------|
    A|----------------------|
GTR F|----------------------|
1+2 C|----------------------| 
    G|----------------------|
    C|-00-0-0-00-0-0-00-0-0-|
       ** * * ** * * ** * *  

-------------------------------------------------------------------------------------------------  

    D|--------------------------------------------------------------------------------|
    A|-t15p12p11-t17p12p11-t15p12p11-t14p12p11-t15p12p11-t14p12p11-t18p12p1-t18p12p11-|
GTR F|--------------------------------------------------------------------------------|
 1  C|--------------------------------------------------------------------------------|
    G|--------------------------------------------------------------------------------|
    C|--------------------------------------------------------------------------------|

    D|----------------------------------------|
    A|----------------------------------------|
GTR F|----------------------------------------|
 2  C|----------------------------------------| 
    G|----------------------------------------|
    C|-00-0-0-00-0-0-00-0-0---00-0-0---00-0-0-|
       ** * * ** * * ** * *   ** * *   ** * *

    D|--------------------------------------------------------------------------------|
    A|-t15p12p11-t17p12p11-t15p12p11-t14p12p11-t15p12p11-t14p12p11-t18p12p1-t21p12p11-|
GTR F|--------------------------------------------------------------------------------|
 1  C|--------------------------------------------------------------------------------|
    G|--------------------------------------------------------------------------------|
    C|--------------------------------------------------------------------------------|

    D|--------------------------------------------|
    A|--------------------------------------------|
GTR F|--------------------------------------------|
 2  C|--------------------------------5-4---------| 
    G|------------------------------------5-4-----|
    C|-44-4-4-44-4-4-44-4-4---44-4-4----------5-4-|
       ** * * ** * * ** * *   ** * *   

    D|----------------------------------------|
    A|----------------------------------------|
GTR F|----------------------------------------|
1+2 C|----------------------------------------| x2
    G|----------------------------------------|
    C|-00-0-0-00-0-0-00-0-0---00-0-0---00-0-0-|
       ** * * ** * * ** * *   ** * *   ** * *

    D|------------------------|
    A|-18-18-181818-18-181818-|
GTR F|-21-21-212121-21-212121-|
 1  C|------------------------| x4
    G|------------------------|
    C|------------------------|

    D|----------------------------------------|
    A|----------------------------------------|
GTR F|----------------------------------------|
 2  C|----------------------------------------| x2
    G|----------------------------------------|
    C|-00-0-0-00-0-0-00-0-0---00-0-0---00-0-0-|
       ** * * ** * * ** * *   ** * *   ** * *

    D|-------------------------------|
    A|-18-18-18181818-18-18-18181818-|
GTR F|-21-21-21212121-21-21-21212121-|
 1  C|-------------------------------| x2
    G|-------------------------------|
    C|-------------------------------|

    D|------------------------------------|
    A|------------------------------------|
GTR F|------------------------------------|
 2  C|------------------------------11----| x2
    G|---------------------------33----33-|
    C|-0000000000000000-44444-11----------|

    D|-------------------------------|
    A|-18-18-18181818-18-18-18181818-|
GTR F|-21-21-21212121-21-21-21212121-|
 1  C|-------------------------------| x2
    G|-------------------------------|
    C|-------------------------------|

    D|--------------------------------|
    A|--------------------------------|
GTR F|--------------------------------|
 2  C|--------------------------------| x2
    G|--------------------------------|
    C|-00000000-4444-1111111111111111-|

D|----------------------------|
A|----------------------6-----|
F|--------------5---4-7---7-4-|
C|-0--------------6-----------|
G|-0-(Ring out)---------------|
C|-0--------------------------|

D|--------------------------------------------------------|
A|-----------------------5---5----------------------6-----|
F|-----------------------8---8--------------5---4-7---7-4-|
C|--------------------------------------------6-----------| x2
G|--------------------------------------------------------|
C|-00000--00000--00000-0---0---00000--00000---------------|
   *****  *****  ***** *   *   *****  *****

D|--------------|
A|--------------|
F|--------------|
C|-2------------|
G|-2-(Ring out)-|
C|-0------------|



--------------------------------------------------------------------------------------------------------
THEORIES OF DESPAIR
--------------------------------------------------------------------------------------------------------

Tuning
blackxfuture 6,431 advanced C G C F A D
D|-----------------------------------------------------------------------|
A|--------------------------------8---8--------------------6--6-6-6--5-5-|
F|---------9------------------------7---7---------9--------5--5-5-5--5-5-|
C|-----------10--------------7-10-------------------10-----7--7-7-7--7-7-| x4
G|-0-0-0-8------0-0-0-7h8h10--------------0-0-0-8------0-0---------------|
C|-0-0-0--------0-0-0---------------------0-0-0--------0-0---------------|
   * * *        * * *                     * * *        * *

D|------ 1,3,5,7 --------------|--- 2 ----|---- 4 ---|--- 6 ----|------ 8 ----------|
A|-----------------------------|----------|----------|----------|-------------------|
F|---9------9/12---9------9/12-|----------|----------|----------|-14--12-10h12p10-9-|
C|-----10------------10-8------|----------|----------|----------|-------------------| x2
G|-8------8------8------8------|----------|----------|----------|-------------------|
C|-----------------------------|-33333333-|-22222222-|-0000-0-0-|-------------------|
   *      *      *      

D|--------------------------------------------------------------------------------------------------------|
A|--------------------------------------------------------------------------------------------------------|
F|-101010101010101010101010101010-999999999999999-1212121212121212121212121212-14141414141414141414141414-|
C|-7-7-7-7-7-7-7-7-7-7-7-7-7-7-7--555555555555555-1010101010101010101010101010-10101010101010101010101010-| x2
G|-8-8-8-8-8-8-8-8-8-8-8-8-8-8-8--777777777777777-1212121212121212121212121212-12121212121212121212121212-|
C|--------------------------------------------------------------------------------------------------------|

D|----------------------------------------------------------------------|
A|----------------------------------------------------------------------|
F|---10-----10-----10-----10-----10-------9-----9-----9-----9-----9-----|
C|------7------7------7------7------7-------5-----5-----5-----5-----5---|
G|-8------8------8------8------8------8-7-----7-----7-----7-----7-----7-|
C|----------------------------------------------------------------------|
   *      *      *      *      *      * *     *     *     *     *     *

    D|-------------------------------------------------------------------------------------------------|
    A|-------------------------------------------------------------------------------------------------|
GTR F|----12-------12-------12-------12-------12-------14-------14-------14-------14-------14----------|
 1  C|-------10-------10-------10-------10-------10-------10-------10-------10-------10-------10----10-|
    G|-12-------12-------12-------12-------12-------12-------12-------12-------12-------12-------12----|
    C|-------------------------------------------------------------------------------------------------|
        *        *        *        *       *         *       *         *        *       *        *

    D|------------------------------------------------------------------------------------------|
    A|------------------------------------------------------------------------------------------|
GTR F|--------------------------------------------------5555-4444-2222------2222----------------|
 2  C|-----------------------------------------------------------------5555------5555-3333-2222-|
    G|------------------------------------------------------------------------------------------|
    C|------------------------------------------------------------------------------------------|

D|----------------------------------------------------------------------|
A|----------------------------------------------------------------------|
F|---10-----10-----10-----10-----10-------9-----9-----9-----9-----9-----|
C|------7------7------7------7------7-------5-----5-----5-----5-----5---|
G|-8------8------8------8------8------8-7-----7-----7-----7-----7-----7-|
C|----------------------------------------------------------------------|
   *      *      *      *      *      * *     *     *     *     *     *

D|------ 1,3,5,7 --------------|--- 2 ----|---- 4 ---|--- 6,8 --|
A|-----------------------------|----------|----------|----------|
F|---9------9/12---9------9/12-|----------|----------|----------|
C|-----10------------10-8------|----------|----------|----------| x2
G|-8------8------8------8------|----------|----------|----------|
C|-----------------------------|-3--33333-|-2--22222-|-0000-0-0-|
                                 *  *****   *  *****   **** * *

D|-13-12-------15-------15-------15-------15-------17-------17-------17----19-------19--------19----|
A|-------13-12----13-12----13-12----13-12----13-12----13-12----13-12----13----17-------17--------17-|
F|-------------------------------------------------------------------------------19-------19--------|
C|--------------------------------------------------------------------------------------------------|
G|--------------------------------------------------------------------------------------------------|
C|--------------------------------------------------------------------------------------------------|

Guitar plays this from 5-8 ^^^

    D|--------------------------------------------|
    A|--------------------------------------------|
GTR F|-------9----------9-----------7----------7--|
 1  C|----7----------7-----------5----------5-----|
    G|-8----------8-----------7----------7--------|
    C|--------------------------------------------|

    D|-17------------------17------------------19------------------19------------------|
    A|-----15--13--15--13------15--13--15--13------17--15--17--15------17--15--17--15--|
GTR F|---------------------------------------------------------------------------------|
 2  C|---------------------------------------------------------------------------------|
    G|---------------------------------------------------------------------------------|
    C|---------------------------------------------------------------------------------|

    D|--------------------------------------------|
    A|-----------------8-----------------5--------|
GTR F|-------9--t12p9-----9-----------7-----7-----|
 1  C|----7------------------7-----5-----------5--|
    G|-8------------------------7-----------------|
    C|--------------------------------------------|

    D|-17------------------17------------------19------------------19------------------|
    A|-----15--13--15--13------15--13--15--13------17--15--17--15------17--15--17--15--|
GTR F|---------------------------------------------------------------------------------|
 2  C|---------------------------------------------------------------------------------|
    G|---------------------------------------------------------------------------------|
    C|---------------------------------------------------------------------------------|

    D|--------------------|
    A|--------------------|
GTR F|----9---------------|
 1  C|-------10-----------|
    G|-8------------------|
    C|--------------------|

    D|--------------------|
    A|--------------------|
GTR F|--------------------|
 2  C|-----------3--2-----|
    G|-----------------3--|
    C|--------------------|

D|-------------5-----------------------------5----------------11----|
A|-----------4-----------------------------4---------------15----15-|
F|---------7-----------------------------7-------------14-----------|
C|------------------------------------------------------------------| x2
G|-0-0-0-0--------0-0-0----1-3-1-0-0-0-0-------0--0--0--------------|
C|-0-0-0-0--------0-0-0-00-1-3-1-0-0-0-0-------0--0--0--------------|
   * * * *        * * * **       * * * *       *  *  *

    D|-------------5-----------------------------5----------------11----|
    A|-----------4-----------------------------4---------------15----15-|
GTR F|---------7-----------------------------7-------------14-----------|
 1  C|------------------------------------------------------------------| x2
    G|-0-0-0-0--------0-0-0----1-3-1-0-0-0-0-------0--0--0--------------|
    C|-0-0-0-0--------0-0-0-00-1-3-1-0-0-0-0-------0--0--0--------------|
       * * * *        * * * **       * * * *       *  *  *

    D|-------|11-------|
    A|-15----|---15----|
GTR F|----14-|------14-|
 2  C|-------|---------|
    G|-------|---------|
    C|- x1---|---------|

Play second bar for duration of gtr 1 part ^^

    D|--------11-------11-------11-------11-------11----|
    A|-15--------15-------15-------15-------15-------15-|
GTR F|----14--------14-------14-------14-------14-------|
 2  C|--------------------------------------------------|
    G|--------------------------------------------------|
    C|--------------------------------------------------|

    D|-------------------------|
    A|-------------------------|
GTR F|-------------------------|
 1  C|-------------------------|
    G|-------------------------|
    C|-000000-00-00-00---------|
       ****** ** ** **

    D|-------------------------|
    A|-------------------------|
GTR F|-------------------------|
 2  C|-------------------------|
    G|-------------------------|
    C|------------------000000-|  
                        ******

    D|-------------------------|
    A|-------------------------|
GTR F|-------------------------|
1+2 C|-------------------------| x2
    G|-------------------------|
    C|-000000-00-00-00--000000-|
       ****** ** ** **  ******

    D|-------------------------------------------------------|
    A|-------------------------------------------------------|
GTR F|-------------------------------------------------------|
 1  C|----------------------------8PHh9h11----------7PHh8h10-| 
    G|------------------9PHh10h12----------8PHh9h11----------|
    C|-000000-00-00-00---------------------------------------|
       ****** ** ** **  

For the second part of this riff, just hammer the notes on, but play the first note as a pinched harmonic.

    D|-------------------------|
    A|-------------------------|
GTR F|-------------------------|
 2  C|-------------------------| 
    G|-------------------------|
    C|-000000-00-00-00--000000-|
       ****** ** ** **  ******

    D|-------------------------|
    A|-------------------------|
GTR F|-------------------------|
1+2 C|-------------------------| x3
    G|-------------------------|
    C|-000000-00-00-00--000000-|
       ****** ** ** **  ******



--------------------------------------------------------------------------------------------------
INNER REPRISAL
--------------------------------------------------------------------------------------------------

Renounced - inner reprisal (First guitar only)

Guitar 2 on his own x2

D|-----------------------------------|
A|-----------------------------------|
F|-----------------------------------|
C|-----------------------------------| x4
G|-0-0--0--0-0---0-0-----------------|
C|-0-0--0--0-0---0-0-(Chug ring out)-|
   * *  *  * *   * *

D|--------------------------------------------------------------------------------------------|
A|--------------------------------------------------------------------------------------------|
F|-------------10--10--10--10--10--10--10--10--10---------------------------------------------|
C|-------------10--10--10--10--10--10--10--10--10-------0--0--0--0--0--0--0--0--0-------------|
G|-------8-7---8---8---8---8---8---8---8---8---8--8-7---0--0--0--0--0--0--0--0--0-------8-7---|
C|-4-3-1-----8-8---8---8---8---8---8---8---8---8------8-0--0--0--0--0--0--0--0--0-4-3-1-----8-|

D|-------------------------------------------------------------------|
A|-------------------------------------------------------------------|
F|-------------------------------------------------------------------|
C|-8-7---10-8-7-8-7---10/12-12-0--0--0--0--0--0--0--0--0-------------|
G|-----8------------8----------0--0--0--0--0--0--0--0--0-------8-7---|
C|-----------------------------0--0--0--0--0--0--0--0--0-4-3-1-----8-|

D|-----------------------------------------------------------------------------------------------------------|
A|-----------------------------------------------------------------------------------------------------------|
F|-10-10-10-10-10-10-10-10-10-10-10-10———————————————————————————————————————————————————————————————————————|
C|-10-10-10-10-10-10-10-10-10-10-10-10-5--5--5--5--5--5--5--5--5--5--5--5-7--7--7--7--7--7--7--7--7--7--7--7-|
G|-8--8--8--8--8--8--8--8--8--8--8--8--3--3--3--3--3--3--3--3--3--3--3--3-5--5--5--5--5--5--5--5--5--5--5--5-|
C|-8--8--8--8--8--8--8--8--8--8--8--8--3--3--3--3--3--3--3--3--3--3--3--3-5--5--5--5--5--5--5--5--5--5--5--5-|

D|----------------------------------|
A|----------------------------------|
F|----------------------------------|
C|----------------------------------|
G|----------------------------------|
C|-00000000000000000000000000000000-|
   ********************************

D|---------------------------------------------------------------------------------------------|
A|---------------------------------------------------------------------------------------------|
F|-10--10--10--10--10--10--10--10--10--10--10--10--------14----12----9/10-10-10-10-10-10-10-10-|
C|-10--10--10--10--10--10--10--10--10--10--10--10----------------------------------------------| 1,3
G|-8---8---8---8---8---8---8---8---8---8---8---8---------12----10----7/8--8--8--8--8--8--8--8--|
C|-8---8---8---8---8---8---8---8---8---8---8---8--000000----00----00---------------------------|
                                                  ******    **    **

D|-------------------------------------------------------------------------------------------------|
A|-------------------------------------------------------------------------------------------------|
F|-12-12-12-12-12-12-12-12-12-12-12-12-12-14-14-14-15-15-15-15-15-15-15-15-15-14-14-14-14-14-14-14-|
C|-------------------------------------------------------------------------------------------------| 2,4
G|-10-10-10-10-10-10-10-10-10-10-10-10-10-12-12-12-13-13-13-13-13-13-13-13-13-12-12-12-12-12-12-12-|
C|-------------------------------------------------------------------------------------------------|

D|---------------------------------------------------------------------------------------------|
A|---------------------------------------------------------------------------------------------|
F|-10--10--10--10--10--10--10--10--10--10--10--10--------14----12----9/10-10-10-10-10-10-10-10-|
C|-10--10--10--10--10--10--10--10--10--10--10--10----------------------------------------------|
G|-8---8---8---8---8---8---8---8---8---8---8---8---------12----10----7/8--8--8--8--8--8--8--8--|
C|-8---8---8---8---8---8---8---8---8---8---8---8--000000----00----00---------------------------|
                                                  ******    **    **

D|-------------------------------------------------------------------------------------------------|
A|-------------------------------------------------------------------------------------------------|
F|-12-12-12-12-12-12-12-12-12-12-12-12-12-14-14-14-15-15-15-15-15-15-15-15-15-14-14-14-14-14-14-14-|
C|-------------------------------------------------------------------------------------------------|
G|-10-10-10-10-10-10-10-10-10-10-10-10-10-12-12-12-13-13-13-13-13-13-13-13-13-12-12-12-12-12-12-12-|
C|-------------------------------------------------------------------------------------------------|

D|----------------------------------------------|
A|----------------------------------------------|
F|--------14----12----9/10-10-10-10-10-10-10-10-|
C|----------------------------------------------|
G|--------12----10----7/8--8--8--8--8--8--8--8--|
C|-000000----00----00---------------------------|
   ******    **    **

D|--------------|
A|--------------|
F|--------------|
C|-0------------|
G|-0-(Let ring)-|
C|-0------------|

Guitar plays breakdown riff x1^^^

D|-----------------------------------------|
A|-----------------------15----15----15----|
F|--------------------18----18----18----18-|
C|-(0)-------------------------------------|
G|-(0)-------------------------------------|
C|-(0)-------------------------------------|

On second guitar 2 breakdown ^^^

D|-------------------------|
A|-------------------------|
F|-------------------------|
C|-------------------------| x2
G|-0-0-0-0-0--0-0-0--0-0-0-|
C|-0-0-0-0-0--0-0-0--0-0-0-|
   * * * * *  * * *  * * *

D|----------------------------------|
A|-----------15---------------------|
F|-----------18---------------------|
C|--------------------------------1-| x4
G|-0-0-0-0-0-----0-0-0--0-0-------1-|
C|-0-0-0-0-0-----0-0-0--0-0-0h1h4-1-|
   * * * * *     * * *  * *

D|-------------------------|
A|-------------------------|
F|-------------------------|
C|-------------------------| x4
G|-0-0-0-0-0--0-0-0--0-0-0-|
C|-0-0-0-0-0--0-0-0--0-0-0-|
   * * * * *  * * *  * * *

D|--------------|
A|--------------|
F|--------------|
C|-0------------| 
G|-0-(Let ring)-|
C|-0------------|

Guitar 2 plays a riff 4x over ring out, then...

D|----------12h13p12----15/17\15-13-12h13p12-----12-----------------|
A|-------13----------13----------------------13-----13----13-13/15--|
F|----14-----------------------------------------------12-----------|
C|-15---------------------------------------------------------------|
G|------------------------------------------------------------------|
C|------------------------------------------------------------------|

Sweep pick first four notes ^^^

D|---------8--------------------12------12------12------12------12-------|
A|------10----10----------10-------8-------8-------8-------8-------8-----|
F|---10----------10----10----10------10------10------10------10------10--|
C|-8----------------8----------------------------------------------------|
G|-----------------------------------------------------------------------|
C|-----------------------------------------------------------------------|

D|-8p5-------8--------8p5-------8-----8/10-17-------17-------17-------17-------17----------|
A|-----6---6---6----------6---6---6-----------15-------15-------15-------15-------15----15-|
F|-------9-------9----------9-------9------------17-------17-------17-------17-------17----|
C|-----------------7-----------------------------------------------------------------------|
G|-----------------------------------------------------------------------------------------|
C|-----------------------------------------------------------------------------------------|

D|-13-------13-------13-------13-------13----------|-12-------12-------13-------12-------13----12----|
A|----15-------15-------15-------15-------15----15-|----15-------15-------15-------15-------15----15-|
F|-------17-------17-------17-------17-------17----|-------17-------17-------17-------17-------------|
C|-------------------------------------------------|-------------------------------------------------|
G|-------------------------------------------------|-------------------------------------------------|
C|---------------- x2 -----------------------------|-------------------------------------------------|

D|-17-------17-------17-------17-------17----------17-15-13-15-13-12-13-12-10-12-10-8-10-12-10-8-|
A|----15-------15-------15-------15-------15----15-----------------------------------------------|
F|-------17-------17-------17-------17-------17--------------------------------------------------|
C|-----------------------------------------------------------------------------------------------|
G|-----------------------------------------------------------------------------------------------|
C|-----------------------------------------------------------------------------------------------|

D|-1010101010101010101010101010101010101010101010101010101010101010-|
A|------------------------------------------------------------------|
F|------------------------------------------------------------------|
C|------------------------------------------------------------------|
G|------------------------------------------------------------------|
C|------------------------------------------------------------------|

Play this section slightly quieter ^^^ 

D|-8p5-------8--------8p5-------8-----8/10-(sustain)-|
A|-----6---6---6----------6---6---6------------------|
F|-------9-------9----------9-------9----------------|
C|-----------------7---------------------------------|
G|---------------------------------------------------|
C|---------------------------------------------------|

D|-----------------------------------------------------------------------------------------------|
A|----------------------------------------------------------------------------------------15-----|
F|-15--15--15--15--15--15--14--14--14--14--14--14--15--15--15--15--15--15-15--14------17------14-|
C|-12--12--12--12--12--12--12--12--12--12--12--12--12--12--12--12--12--12---------15-------------| 1,3,5,7
G|-12--12--12--12--12--12--12--12--12--12--12--12--12--12--12--12--12--12------------------------|
C|-12--12--12--12--12--12--12--12--12--12--12--12--12--12--12--12--12--12------------------------|

D|------------------------------------------------------------------------------------------------|
A|------------------------------------------------------------------------------------------------|
F|-------------------------------------------------------------------------10--10--10--10--10--10-|
C|-12--12--12--12--12--12--10--10--10--10--10--10--14--14--14--14--14--14--10--10--10--10--10--10-| 2,6
G|-8---8---8---8---8---8---8---8---8---8---8---8---8---8---8---8---8---8---8---8---8---8---8---8--|
C|-8---8---8---8---8---8---8---8---8---8---8---8---8---8---8---8---8---8---8---8---8---8---8---8--|

D|------------------------------------------------------------------------8-------|
A|------------------------------------------------8-------8-------8---------------|
F|--------------------------------------------------10------10------10------10----|
C|-12--12--12--12--12--12--10--10--10--10--10--10------10------10------10------10-| 4,8
G|-8---8---8---8---8---8---8---8---8---8---8---8----------------------------------|
C|-8---8---8---8---8---8---8---8---8---8---8---8----------------------------------|

D|--------------|
A|--------------|
F|--------------|
C|-0------------|
G|-0-(Let ring)-|
C|-0------------|

D|-------------------------|
A|-------------------------|
F|-------------------------|
C|-------------------------|
G|-0-0-0-0-0--0-0-0--0-0-0-|
C|-0-0-0-0-0--0-0-0--0-0-0-|
   * * * * *  * * *  * * *

Gradually slows down. Repeat for ages.
Suggest correction
Creating personal tab
Creating personal tab
You can edit any tab online and save it as your Personal.

You can edit, replace or remove any tab part or add personal notes – all changes will be seen only by you.

Personal tabs can be accessed anytime from any device, even offline.
Learn more »
Give kudos to tab author, rate the tab!
1 2 3 4 5
comments
print report bad tab
guest
You may want to rate the tab now too:
select rating
Wanna post a correction for this tab? Suggest correction