Oops, an error
Loading. Please wait.

Theories Of Despair tab

version 1
version 1

Whole song

43 views 1 this week
no commentswrite comment
1 2 3 4 5
3 more votes to show rating
add to favorites
×
Save as Personal and add changes to this tab that will be seen only by you. Learn more ›
×
You can save this tab as Personal to edit and correct it or add notes. All changes will be seen only by you. Learn more »
launch autoscroll
font size
0
reset
how to read this tab
guitar tuner
edit
Autoscroll
slow
fast
+/-
esc
set tempo
stop
D|-----------------------------------------------------------------------|
A|--------------------------------8---8--------------------6--6-6-6--5-5-|
F|---------9------------------------7---7---------9--------5--5-5-5--5-5-|
C|-----------10--------------7-10-------------------10-----7--7-7-7--7-7-| x4
G|-0-0-0-8------0-0-0-7h8h10--------------0-0-0-8------0-0---------------|
C|-0-0-0--------0-0-0---------------------0-0-0--------0-0---------------|
   * * *        * * *                     * * *        * *

D|------ 1,3,5,7 --------------|--- 2 ----|---- 4 ---|--- 6 ----|------ 8 ----------|
A|-----------------------------|----------|----------|----------|-------------------|
F|---9------9/12---9------9/12-|----------|----------|----------|-14--12-10h12p10-9-|
C|-----10------------10--------|----------|----------|----------|-------------------| x2
G|-8------8------8------8------|----------|----------|----------|-------------------|
C|-----------------------------|-33333333-|-22222222-|-0000-0-0-|-------------------|
   *      *      *      

D|--------------------------------------------------------------------------------------------------------|
A|--------------------------------------------------------------------------------------------------------|
F|-101010101010101010101010101010-999999999999999-1212121212121212121212121212-14141414141414141414141414-|
C|-7-7-7-7-7-7-7-7-7-7-7-7-7-7-7--555555555555555-1010101010101010101010101010-10101010101010101010101010-| x2
G|-8-8-8-8-8-8-8-8-8-8-8-8-8-8-8--777777777777777-1212121212121212121212121212-12121212121212121212121212-|
C|--------------------------------------------------------------------------------------------------------|

D|----------------------------------------------------------------------|
A|----------------------------------------------------------------------|
F|---10-----10-----10-----10-----10-------9-----9-----9-----9-----9-----|
C|------7------7------7------7------7-------5-----5-----5-----5-----5---|
G|-8------8------8------8------8------8-7-----7-----7-----7-----7-----7-|
C|----------------------------------------------------------------------|
   *      *      *      *      *      * *     *     *     *     *     *

    D|-------------------------------------------------------------------------------------------------|
    A|-------------------------------------------------------------------------------------------------|
GTR F|----12-------12-------12-------12-------12-------14-------14-------14-------14-------14----------|
 1  C|-------10-------10-------10-------10-------10-------10-------10-------10-------10-------10----10-|
    G|-12-------12-------12-------12-------12-------12-------12-------12-------12-------12-------12----|
    C|-------------------------------------------------------------------------------------------------|
        *        *        *        *       *         *       *         *        *       *        *

    D|------------------------------------------------------------------------------------------|
    A|------------------------------------------------------------------------------------------|
GTR F|--------------------------------------------------5555-4444-2222------2222----------------|
 2  C|-----------------------------------------------------------------5555------5555-3333-2222-|
    G|------------------------------------------------------------------------------------------|
    C|------------------------------------------------------------------------------------------|

D|----------------------------------------------------------------------|
A|----------------------------------------------------------------------|
F|---10-----10-----10-----10-----10-------9-----9-----9-----9-----9-----|
C|------7------7------7------7------7-------5-----5-----5-----5-----5---|
G|-8------8------8------8------8------8-7-----7-----7-----7-----7-----7-|
C|----------------------------------------------------------------------|
   *      *      *      *      *      * *     *     *     *     *     *

D|------ 1,3,5,7 --------------|--- 2 ----|---- 4 ---|--- 6,8 --|
A|-----------------------------|----------|----------|----------|
F|---9------9/12---9------9/12-|----------|----------|----------|
C|-----10------------10-8------|----------|----------|----------| x2
G|-8------8------8------8------|----------|----------|----------|
C|-----------------------------|-3--33333-|-2--22222-|-0000-0-0-|
                                 *  *****   *  *****   **** * *

D|-13-12-------15-------15-------15-------15-------17-------17-------17----19-------19--------19----|
A|-------13-12----13-12----13-12----13-12----13-12----13-12----13-12----13----17-------17--------17-|
F|-------------------------------------------------------------------------------19-------19--------|
C|--------------------------------------------------------------------------------------------------|
G|--------------------------------------------------------------------------------------------------|
C|--------------------------------------------------------------------------------------------------|

Guitar plays this from 5-8 ^^^

    D|--------------------------------------------|
    A|--------------------------------------------|
GTR F|-------9----------9-----------7----------7--|
 1  C|----7----------7-----------5----------5-----|
    G|-8----------8-----------7----------7--------|
    C|--------------------------------------------|

    D|-17------------------17------------------19------------------19------------------|
    A|-----15--13--15--13------15--13--15--13------17--15--17--15------17--15--17--15--|
GTR F|---------------------------------------------------------------------------------|
 2  C|---------------------------------------------------------------------------------|
    G|---------------------------------------------------------------------------------|
    C|---------------------------------------------------------------------------------|

    D|--------------------------------------------|
    A|-----------------8-----------------5--------|
GTR F|-------9--t12p9-----9-----------7-----7-----|
 1  C|----7------------------7-----5-----------5--|
    G|-8------------------------7-----------------|
    C|--------------------------------------------|

    D|-17------------------17------------------19------------------19------------------|
    A|-----15--13--15--13------15--13--15--13------17--15--17--15------17--15--17--15--|
GTR F|---------------------------------------------------------------------------------|
 2  C|---------------------------------------------------------------------------------|
    G|---------------------------------------------------------------------------------|
    C|---------------------------------------------------------------------------------|

    D|--------------------|
    A|--------------------|
GTR F|----9---------------|
 1  C|-------10-----------|
    G|-8------------------|
    C|--------------------|

    D|--------------------|
    A|--------------------|
GTR F|--------------------|
 2  C|-----------3--2-----|
    G|-----------------3--|
    C|--------------------|

D|-------------5-----------------------------5----------------11----|
A|-----------4-----------------------------4---------------15----15-|
F|---------7-----------------------------7-------------14-----------|
C|------------------------------------------------------------------| x2
G|-0-0-0-0--------0-0-0----1-3-1-0-0-0-0-------0--0--0--------------|
C|-0-0-0-0--------0-0-0-00-1-3-1-0-0-0-0-------0--0--0--------------|
   * * * *        * * * **       * * * *       *  *  *

    D|-------------5-----------------------------5----------------11----|
    A|-----------4-----------------------------4---------------15----15-|
GTR F|---------7-----------------------------7-------------14-----------|
 1  C|------------------------------------------------------------------| x2
    G|-0-0-0-0--------0-0-0----1-3-1-0-0-0-0-------0--0--0--------------|
    C|-0-0-0-0--------0-0-0-00-1-3-1-0-0-0-0-------0--0--0--------------|
       * * * *        * * * **       * * * *       *  *  *

    D|-------|11-------|
    A|-15----|---15----|
GTR F|----14-|------14-|
 2  C|-------|---------|
    G|-------|---------|
    C|- x1---|---------|

Play second bar for duration of gtr 1 part ^^

    D|--------11-------11-------11-------11-------11----|
    A|-15--------15-------15-------15-------15-------15-|
GTR F|----14--------14-------14-------14-------14-------|
 2  C|--------------------------------------------------|
    G|--------------------------------------------------|
    C|--------------------------------------------------|

    D|-------------------------|
    A|-------------------------|
GTR F|-------------------------|
 1  C|-------------------------|
    G|-------------------------|
    C|-000000-00-00-00---------|
       ****** ** ** **

    D|-------------------------|
    A|-------------------------|
GTR F|-------------------------|
 2  C|-------------------------|
    G|-------------------------|
    C|------------------000000-|  
                        ******

    D|-------------------------|
    A|-------------------------|
GTR F|-------------------------|
1+2 C|-------------------------| x2
    G|-------------------------|
    C|-000000-00-00-00--000000-|
       ****** ** ** **  ******

    D|-------------------------------------------------------|
    A|-------------------------------------------------------|
GTR F|-------------------------------------------------------|
 1  C|----------------------------8PHh9h11----------7PHh8h10-| 
    G|------------------9PHh10h12----------8PHh9h11----------|
    C|-000000-00-00-00---------------------------------------|
       ****** ** ** **  

For the second part of this riff, just hammer the notes on, but play the first note as a pinched harmonic.

    D|-------------------------|
    A|-------------------------|
GTR F|-------------------------|
 2  C|-------------------------| 
    G|-------------------------|
    C|-000000-00-00-00--000000-|
       ****** ** ** **  ******

    D|-------------------------|
    A|-------------------------|
GTR F|-------------------------|
1+2 C|-------------------------| x3
    G|-------------------------|
    C|-000000-00-00-00--000000-|
       ****** ** ** **  ******

            
            
Suggest correction
Creating personal tab
Creating personal tab
You can edit any tab online and save it as your Personal.

You can edit, replace or remove any tab part or add personal notes – all changes will be seen only by you.

Personal tabs can be accessed anytime from any device, even offline.
Learn more »
Give kudos to tab author, rate the tab!
1 2 3 4 5
comments
print report bad tab
guest
You may want to rate the tab now too:
select rating
Wanna post a correction for this tab? Suggest correction