Oops, an error
Loading. Please wait.

When The Sky Comes Falling tab

22 views 1 this week
no commentswrite comment
1 2 3 4 5
2 more votes to show rating
add to favorites
×
Save as Personal and add changes to this tab that will be seen only by you. Learn more ›
×
You can save this tab as Personal to edit and correct it or add notes. All changes will be seen only by you. Learn more »
launch autoscroll
font size
0
reset
how to read this tab
guitar tuner
edit
Autoscroll
slow
fast
+/-
esc
set tempo
stop
* = palm mute

e|-----------------------------------------------------------------|
B|-----------------------------------------------------------------|
G|-----3---2-----0---2-----3---2-------2---3-----5---3-----7-------|
D|---1---1---1-----1---1-----1---1---3---3---3-----3---3-----3---3-| x7
A|-------------------------------------------------------------5---|
D|-1-----------1---------1---------0-----------0---------0---------|

e|-----------------------------------------------------------------|
B|-----------------------------------------------------------------|
G|-----3---2-----0---2-----3---2-----------------------------------|
D|---1---1---1-----1---1-----1---1---------------------------------| 
A|---------------------------------0-0-0-0-0-0-0-0-0-0-0-0-0-0-0-0-|
D|-1-----------1---------1---------0-0-0-0-0-0-0-0-0-0-0-0-0-0-0-0-|
                                   * * * * * * * * * * * * * * * *

    e|-------------------------------1-------1---1-----------------|
    B|-------------------------------1-------1---1-----10-10-10-10-|
GTR G|-------------------------------3-------3---3-----7--7--7--7--|
 1  D|-1--1-1-1--1-1-1-1-1-1-1-------3-------3---3-----7--7--7--7--| x3
    A|-1--1-1-1--1-1-1-1-1-1-1-0-0-0---0-0-0---0---0-0-------------|
    D|-1--1-1-1--1-1-1-1-1-1-1-0-0-0---0-0-0---0---0-0-------------|
                               * * *   * * *   *   * * 

    e|-------------------------------------------------------------|
    B|-------------------------------------------------------------|
GTR G|-------------------------7-7-7-7-7-7-7-7-7-7-7-7-14-14-14-14-|
 2  D|-1--1-1-1--1-1-1-1-1-1-1-------------------------------------| x3
    A|-1--1-1-1--1-1-1-1-1-1-1-5-5-5-5-5-5-5-5-5-5-5-5-12-12-12-12-|
    D|-1--1-1-1--1-1-1-1-1-1-1-------------------------------------|

    e|---------------------------------------------------------|
    B|---------------------------------------------------------|
GTR G|---------------------------------------------------------|
 1  D|-1--1-1-1--1-1-1-1-1-1-1---------------------------------|
    A|-1--1-1-1--1-1-1-1-1-1-1-0-0-0-0-0-0-0-0-0-0-0-0-0-0-0-0-|
    D|-1--1-1-1--1-1-1-1-1-1-1-0-0-0-0-0-0-0-0-0-0-0-0-0-0-0-0-|
                               * * * * * * * * * * * * * * * *
                             
e|--------------------------------------------------------------|
B|--------------------------------------------------------------|
G|--------------------------------------------------------------|
D|--------------------------------------------------------------| x4
A|-4-1-3--0-0-4-1-3--0-0-4-1-3--4-1-3--0-0-4-1-3--0-0-----------|
D|-4-1-3--0-0-4-1-3--0-0-4-1-3--4-1-3--0-0-4-1-3--0-0-4444-1111-|
          * *        * *               * *        * *

e|---------------------------------------------------------------------------|
B|-------------------------------------------------------------------------6-|
G|-------3---2-----10--10--10--10--10--10-------3---5-3-2-10--10--10--10---9-|
D|-----------------10--10--10--10--10--10-----------------10--10--10--10-----| 1,3
A|-0-0-0---0---0-0-8---8---8---8---8---8--0-0-0---0-------8---8---8---8--0---|
D|-0-0-0---0---0-0-8---8---8---8---8---8--0-0-0---0-------8---8---8---8--0---|
     * *   *   * *                          * *   *                      *

e|-----------------------------------------------------------------------|
B|-----------------------------------------------------------------------|
G|-------3---2-----10--10--10--10--10--10-------3---5-3-2-10--10--10--10-|
D|-----------------10--10--10--10--10--10-----------------10--10--10--10-| 2,4
A|-0-0-0---0---0-0-8---8---8---8---8---8--0-0-0---0-------8---8---8---8--|
D|-0-0-0---0---0-0-8---8---8---8---8---8--0-0-0---0-------8---8---8---8--|
     * *   *   * *                          * *   *          

e|--------------------------------------------------------------|
B|--------------------------------------------------------------|
G|--------------------------------------------------------------|
D|--------------------------------------------------------------| x4
A|-4-1-3--0-0-4-1-3--0-0-4-1-3--4-1-3--0-0-4-1-3--0-0-----------|
D|-4-1-3--0-0-4-1-3--0-0-4-1-3--4-1-3--0-0-4-1-3--0-0-4444-1111-|
          * *        * *               * *        * *

e|--------------|
B|--------------|
G|--------------|
D|-0------------|
A|-0-(Ring out)-|
D|-0------------|

    e|------------------------------------------------------------------------------------------------|
    B|------------------------------------------------------------------------------------------------|
GTR G|------------------------------------------------------------------------------------------------|
 1  D|-----------------------------------------------------101010-888-101010-121212-101010-888-101010-|
    A|----121212-151515-131313-101010-131313-121212-888-----------------------------------------------|
    D|-0------------------------------------------------8---------------------------------------------|

    e|------------------------------------------------------------------------------------------------|
    B|------------------------------------------------------------------------------------------------|
GTR G|------------------------------------------------------------------------------------------------|
 2  D|-0------------------------------------------------10--------------------------------------------|
    A|-0-(Ring out)-------------------------------------8--(Ring out)---------------------------------|
    D|-0------------------------------------------------8---------------------------------------------|

    e|-----------------------------------------------------------------------------------|
    B|-----------------------------------------------------------------------------------|
GTR G|-----------------------------------------------------------------------------------|
 1  D|--------------------------------------------------------555-666-555----555-666-555-|
    A|----121212-151515-131313-171717-151515-131313-151515-------------------------------|
    D|-0---------------------------------------------------3--------------6--------------|

    e|-----------------------------------------------------------------------------------|
    B|-----------------------------------------------------------------------------------|
GTR G|-----------------------------------------------------------------------------------|
 2  D|-0---------------------------------------------------5--------------5--------------|
    A|-0-(Ring out)----------------------------------------3-(Ring out)---6-(Ring out)---|
    D|-0---------------------------------------------------3--------------6--------------|

Play all of tremelo pick section x2, then again, but with the following variation on the last bit...


    e|-----------------------------------------------------------------------------------|
    B|-----------------------------------------------------------------------------------|
GTR G|-----------------------------------------------------------------------------------|
 1  D|--------------------------------------------------------555-666-555-5--------------|
    A|----121212-151515-131313-171717-151515-131313-151515----------------6-(Ring out)---|
    D|-0---------------------------------------------------3--------------6--------------|

    e|-----------------------------------------------------------------------------------|
    B|-----------------------------------------------------------------------------------|
GTR G|-----------------------------------------------------------------------------------|
 2  D|-0---------------------------------------------------5--------------5--------------|
    A|-0-(Ring out)----------------------------------------3-(Ring out)---6-(Ring out)---|
    D|-0---------------------------------------------------3--------------6--------------|

    e|-------------------------|-------------------------|--------------------------------------------|
    B|-------------------------|-------------------------|--------------------------------------------|
GTR G|-------------------------|-------------------------|--------------------------------------------|
 1  D|-------------------------|-------------------------|--------------------------------------------|
    A|-----------------0--0--0-|-------------------------|-----------------0--0--0--33333333----------|
    D|-0-0-1-0-4-1-0-1-0--0--0-|-------------------------|-0-0-1-0-4-1-0-1-0--0--0-----------44444444-|
       * * * * * * * * *  *  *                             * * * * * * * * *  *  *

    e|-------------------------|-------------------------|--------------------------------------------|
    B|-------------------------|-------------------------|--------------------------------------------|
GTR G|-------------------------|-------------------------|--------------------------------------------|
 2  D|-------------------------|-------------------------|--------------------------33333333----------|
    A|-------------------------|-----------------0--0--0-|-----------------------------------22222222-|
    D|-------------------------|-0-0-1-0-4-1-0-1-0--0--0-|--------------------------------------------|
                                 * * * * * * * * *  *  *


    e|-------------------------|-------------------------|--------------------------------------------|
    B|-------------------------|-------------------------|--------------------------------------------|
GTR G|-------------------------|-------------------------|--------------------------------------------|
 1  D|-------------------------|-------------------------|--------------------------------------------|
    A|-----------------0--0--0-|-------------------------|-----------------0--0--0--11111111----------|
    D|-0-0-1-0-4-1-0-1-0--0--0-|-------------------------|-0-0-1-0-4-1-0-1-0--0--0-----------44444444-|
       * * * * * * * * *  *  *                             * * * * * * * * *  *  *

    e|-------------------------|-------------------------|--------------------------------------------|
    B|-------------------------|-------------------------|--------------------------------------------|
GTR G|-------------------------|-------------------------|--------------------------------------------|
 2  D|-------------------------|-------------------------|--------------------------11111111----------|
    A|-------------------------|-----------------0--0--0-|-----------------------------------22222222-|
    D|-------------------------|-0-0-1-0-4-1-0-1-0--0--0-|--------------------------------------------|
                                 * * * * * * * * *  *  *

    e|-10------10------10------10------10---------8-------8-------8-------8-------8----------|
    B|----10------10------10------10------10---10---10------10------10------10------10----10-|
GTR G|-------7-------7-------7-------7-------7---------10------10------10------10------10----|
 1  D|---------------------------------------------------------------------------------------|
    A|---------------------------------------------------------------------------------------|
    D|---------------------------------------------------------------------------------------|

    e|---------------------------------------------------------------------------------------|
    B|---------------------------------------------------------------------------------------|
GTR G|---------------------------------------------------------------------------------------|
 2  D|-0------------------------------------------10-----------------------------------------|
    A|-0-(Ring out)-------------------------------8--(Ring out)------------------------------|
    D|-0------------------------------------------8------------------------------------------|

    e|-10------10------10------10------10-----------------5-----5-----5----6-----6-----5--|
    B|----10------10------10------10------10---10---10------6-6---6-6---6----6-6---6-6----|
GTR G|-------7-------7-------7-------7-------7---------10---------------------------------|
 1  D|------------------------------------------------------------------------------------|
    A|------------------------------------------------------------------------------------|
    D|------------------------------------------------------------------------------------|

    e|------------------------------------------------------------------------------------|
    B|------------------------------------------------------------------------------------|
GTR G|------------------------------------------------------------------------------------|
 2  D|-0--------------------------------------------------5-------------5-----------------|
    A|-0-(Ring out)---------------------------------------3-(Ring out)--6-(Ring out)------|
    D|-0--------------------------------------------------3-------------6-----------------|

Play all of that section twice, then...

    e|-10------10------10------10------10---------8-------8-------8-------8-------8----------|
    B|----10------10------10------10------10---10---10------10------10------10------10----10-|
GTR G|-------7-------7-------7-------7-------7---------10------10------10------10------10----|
 1  D|---------------------------------------------------------------------------------------|
    A|---------------------------------------------------------------------------------------|
    D|---------------------------------------------------------------------------------------|

    e|-----------------------------------------------------------------------------------|
    B|-----------------------------------------------------------------------------------|
GTR G|-----------------------------------------------------------------------------------|
 2  D|----------------------------------------------10-10-88-10-10-12-12-10-10-8-8-10-10-|
    A|----12-12-15-15-13-13-10-10-13-13-12-12-8-8----------------------------------------|
    D|-0------------------------------------------8--------------------------------------|

    e|-10------10------10------10------10-----------------5-----5-----5----6-----6-----5--|
    B|----10------10------10------10------10---10---10------6-6---6-6---6----6-6---6-6----|
GTR G|-------7-------7-------7-------7-------7---------10---------------------------------|
 1  D|------------------------------------------------------------------------------------|
    A|------------------------------------------------------------------------------------|
    D|------------------------------------------------------------------------------------|

    e|--------------------------------------------------------------------------|
    B|--------------------------------------------------------------------------|
GTR G|--------------------------------------------------------------------------|
 2  D|------------------------------------------------5-5-6-6-5-5---5-5-6-6-5-5-|
    A|----12-12-15-15-13-13-17-17-15-15-13-13-15-15-----------------------------|
    D|-0--------------------------------------------3-------------6-------------|

Play this section twice and end on this....

e|--------------|
B|--------------|
G|--------------|
D|-3------------|
A|-0-(Ring out)-|
D|-0------------|
Suggest correction
Creating personal tab
Creating personal tab
You can edit any tab online and save it as your Personal.

You can edit, replace or remove any tab part or add personal notes – all changes will be seen only by you.

Personal tabs can be accessed anytime from any device, even offline.
Learn more »
Give kudos to tab author, rate the tab!
1 2 3 4 5
comments
print report bad tab
guest
You may want to rate the tab now too:
select rating
Wanna post a correction for this tab? Suggest correction