Oops, an error
Loading. Please wait.

Cuanto Nos Ama intro tab

by Renova
2,203 views 1 this week
no commentswrite comment
1 2 3 4 5
3 more votes to show rating
add to favorites
×
Save as Personal and add changes to this tab that will be seen only by you. Learn more ›
×
You can save this tab as Personal to edit and correct it or add notes. All changes will be seen only by you. Learn more »
launch autoscroll
font size
0
reset
how to read this tab
guitar tuner
edit
Autoscroll
slow
fast
+/-
esc
set tempo
stop
Author
Difficulty
Canción: Nos Ama
Banda: Renova
Autor Original: John Mark McMillan

Esta es mi primera Tab, todo esta sacado por oído pero seguro les sirve, es muy sencilla
y se oye genial.

Primero empieza con un pequeño Intro de batería y después viene la guitarra eléctrica
con lo siguiente:

Afinación: Standard (EADGBE).

INTRO

1ra Guitarra
         x3
E------------------|-----------------------------|
A----5/7--7--7-----|--8--7--5--------------------|
D------------------|-----------------------------|
G------------------|-----------------------------|
B------------------|-----------------------------|
E------------------|-----------------------------|

        x3
E------------------|-----------------------------|
A----5/7--7--7-----|---10---10---10--------------|
D------------------|-----------------------------|
G------------------|-----------------------------|
B------------------|-----------------------------|
E------------------|-----------------------------|

       x3
E------------------|--------------------------------------|
A----5/7--7--7-----|--8--7--5---3/5--3--3--3--2--3--------|
D------------------|---------------------------------2/7--|
G------------------|--------------------------------------|
B------------------|--------------------------------------|
E------------------|--------------------------------------|

2nda Guitarra (Esto lo tocas junto con la 1era Guitarra)

       x3
E------------------|-----------------------------|
A---7/9---9---9----|-----10----9----7------------|
D---9/11--11--11---|-----12----11---9------------|
G---9/11--11--11---|-----12----11---9------------|
B------------------|-----------------------------|
E------------------|-----------------------------|

       x3
E------------------|-----------------------------|
A---7/9---9---9----|------12---12---12-----------|
D---9/11--11--11---|------14---14---14-----------|
G---9/11--11--11---|------14---14---14-----------|
B------------------|-----------------------------|
E------------------|-----------------------------|

       x3
E------------------|--------------------------------------|
A---7/9---9---9----|---10---9----7---5/7--5---4--5--0-----|
D---9/11--11--11---|---12---11---9---7/9--7---6--7--2-----|
G---9/11--11--11---|---12---11---9---7/9--7---6--7--2-----|
B------------------|--------------------------------------|
E------------------|--------------------------------------|

VERSO 1

       x8              x4               x4               x4
E--------2------|---------2-----|---------0-------|---------5-----|
A----3------3---|-----3------3--|-----3-----------|-----3------3--|
D--2---2--------|---4---4-------|---2---2---------|---4---4-------|
G---------------|---------------|-----------------|---------------|
B---------------|---------------|-----------------|---------------|
E---------------|---------------|-----------------|---------------|
El es celoso...  Su amor es...  Me dobla con el...  y gracia...

       x4              x4               x4               x4
E--------2------|---------2-----|---------0-------|---------5-----|
A----3------3---|-----3------3--|-----3-----------|-----3------3--|
D--2---2--------|---4---4-------|---2---2---------|---4---4-------|
G---------------|---------------|-----------------|---------------|
B---------------|---------------|-----------------|---------------|
E---------------|---------------|-----------------|---------------|
De repente...    Dolores...      Y Puedo ver...    Tu afecto es...


       x4              x4               x4               x4
E--------2------|---------2-----|---------0-------|---------5-----|--2--|
A----3------3---|-----3------3--|-----3-----------|-----3------3--|--3--|
D--2---2--------|---4---4-------|---2---2---------|---4---4-------|--2--|
G---------------|---------------|-----------------|---------------|--0--|
B---------------|---------------|-----------------|---------------|--0--|
E---------------|---------------|-----------------|---------------|--0--|
Oh, cuanto...    Oh, cuanto el... nos ama          Cuanto nos ama, oh





Solo me faltaría el puente solo que Renova lo hace un poco mas grave que la versión 
original de McMillan, también alcanzo a percibir que se presentan dos guitarras y una tiene 
como un tono mas grave que otra, por lo que aun trabajo en eso... siento mucho las molestias.
¡Suerte!

http://www.youtube.com/watch?v=3MROKyZ3a9g

            
            
Suggest correction
Creating personal tab
Creating personal tab
You can edit any tab online and save it as your Personal.

You can edit, replace or remove any tab part or add personal notes – all changes will be seen only by you.

Personal tabs can be accessed anytime from any device, even offline.
Learn more »
Give kudos to tab author, rate the tab!
1 2 3 4 5
comments
print report bad tab
guest
You may want to rate the tab now too:
select rating
Wanna post a correction for this tab? Suggest correction