Oops, an error
Loading. Please wait.

Llenas Mi Ser tab

by Renova
51 views 1 this week
no commentswrite comment
1 2 3 4 5
3 more votes to show rating
add to favorites
×
Save as Personal and add changes to this tab that will be seen only by you. Learn more ›
×
You can save this tab as Personal to edit and correct it or add notes. All changes will be seen only by you. Learn more »
launch autoscroll
font size
0
reset
how to read this tab
guitar tuner
edit
Autoscroll
slow
fast
+/-
esc
set tempo
stop
Intro: F Am F Dm C Csus4 C

E)----------------------------------------------------------10-------------
A)-------------------------------------------------------10----10----------
D)----------------------------------7-3s5-------9h10-9------------9h10-9---
G)5h7s9----7---5h7s9---7--7h9-9-9p7---3s5--5h7-----------------------------
B)------8------------8-----------------------------------------------------
e)-------------------------------------------------------------------------

E)-------------------------------------------------------------------------
A)-------------------------------------------------------------------------
D)-9h10--10s12---12s14-----12h14h12----------------------12--12s14---------
G)---------------------12-----------14---10-9-10--9h10p9-------------------
B)-------------------------------------------------------------------------
e)-------------------------------------------------------------------------

E)------------------------------------
A)-------------------------------3----
D)-------12s10------------3h5---------
G)-12h14-----------------------5------
B)------------------------------------
e)------------------------------------

F                        Am
Despierto y aun estoy contigo
Tu gloria me rodea
F                           Am         G C
Y cuan preciosos me son tus pensamientos
F                        Am  G C
Despierto y aun estoy contigo

          F            Am  G C
Llenas mi ser, con tu amor
     F  Dm          C
Que mora en mi interior
          F            Am  G C
Mi alma anhela de tu unción
           F  Dm        F
Llenas mi ser, con tu amor
         Am G C
Con tu amor

(C)       F         Dm
Entrego a Ti mi corazón
            Am     G
Y mi adoración Señor
            F
Mi vida te doy
           Dm            C
Y declaro hoy, yo libre soy


MI Primer Colaboración
La Gloria sea para Dios,
El único merecedor de toda alabanza.
Bendiciones desde San Luis R. Col.

            
            
Suggest correction
Creating personal tab
Creating personal tab
You can edit any tab online and save it as your Personal.

You can edit, replace or remove any tab part or add personal notes – all changes will be seen only by you.

Personal tabs can be accessed anytime from any device, even offline.
Learn more »
Give kudos to tab author, rate the tab!
1 2 3 4 5
comments
print report bad tab
guest
Wanna post a correction for this tab? Suggest correction