Oops, an error
Loading. Please wait.

La Vie Boheme bass

version 1
version 1

Whole song

by Rent
6,529 views 21 this week
1 commentread comment
1 2 3 4 5
1 last vote to show rating
add to favorites
×
Save as Personal and add changes to this tab that will be seen only by you. Learn more ›
×
You can save this tab as Personal to edit and correct it or add notes. All changes will be seen only by you. Learn more »
launch autoscroll
font size
0
reset
guitar tuner
edit
Autoscroll
slow
fast
+/-
esc
set tempo
stop
main riff 

G|---------------------------------|
D|------6---------------------6----|
A|---------3-4---6----6-4--3-------|
E|--4----4----------4-------4------|

G|---------------------------------|
D|------6---------------------6----|
A|---------3-4---6----6-4--3-------|
E|--4----4----------4-------4------|

G|---------------------------------|
D|------6---------------------6----|
A|---------3-4---6----6-4--3-------|
E|--4----4----------4-------4------|

G|---------------------------------|
D|------6---------------------6----|
A|---------3-4---6----6-4--3-------|
E|--4----4----------4-------4------|.....

            
            
Suggest correction
Creating personal tab
Creating personal tab
You can edit any tab online and save it as your Personal.

You can edit, replace or remove any tab part or add personal notes – all changes will be seen only by you.

Personal tabs can be accessed anytime from any device, even offline.
Learn more »
Give kudos to tab author, rate the tab!
1 2 3 4 5
comments
print report bad tab
1 comment total.
0 reply
skatepalooza 135 Jul 04, 2016 12:51 PM

Good for the intro...

the next part is shifting everything down...

G|------6---------------------6----|
D|---------3-4---6----6-4--3-------|
A|--4----4----------4-------4------|
E|---------------------------------|

Still trying to figure out the rest of it....

For the part that goes "That 5 Miso soup..." its played:

G|------5--5-----------------------|
D|--------6--6---------------------|
A|---------------------------------|
E|---------------------------------|

Then for the part where they sing: "In honor of Bohemia, Maureen Johnson..."

Its the main part played but then each verse it gets shifted up a half step!

guest
Wanna post a correction for this tab? Suggest correction