Oops, an error
Loading. Please wait.

Littly Riff Right Before Glory tab

by Rent
3,577 views 6 this week
2 commentsread comments
1 2 3 4 5
x 4
add to favorites
×
Save as Personal and add changes to this tab that will be seen only by you. Learn more ›
×
You can save this tab as Personal to edit and correct it or add notes. All changes will be seen only by you. Learn more »
launch autoscroll
font size
0
reset
how to read this tab
guitar tuner
edit
Autoscroll
slow
fast
+/-
esc
set tempo
stop
Difficulty
This is the little thing Roger plays right before he goes outside to sing Glory. This is
when fingerpicked.


e|--2-3-2-0-2h3-2--------|
B|-----------------------|
G|-----------------------|
D|-0-0-0-0-0-------------|
A|-----------------3--2--|
E|-----------------------|


All that is a D chord...

There are a few chords that are strummed right here, but I'm not sure what they are.
he goes into "Musetta's Waltz" which is this.

e|--7---------7-6-------6-4--|-4-6-77-------------|
B|----------7---------7------|--------55-7-88-44--|
G|--------8---------8--------|--------------------|
D|------9---------9----------|--------------------|
A|---------------------------|--------------------|
E|---------------------------|--------------------| then that first half is repeated. 
when Glory starts.

            
            
Suggest correction
Creating personal tab
Creating personal tab
You can edit any tab online and save it as your Personal.

You can edit, replace or remove any tab part or add personal notes – all changes will be seen only by you.

Personal tabs can be accessed anytime from any device, even offline.
Learn more »
comments
print report bad tab
2 comments total.
0 reply
aerlinnel 10 Apr 27, 2008 08:33 PM

Close.

e|--3-2-0-2-3p2p0--------|
B|-----------------------|
G|-----------------------|
D|-0-0-0-0-0-------------|
A|-----------------3--2--|
E|-----------------------|

0 reply
thaliapeters88 10 Apr 09, 2016 04:42 PM

Musetta's Waltz is more like

e|--7---------7-6-------6-4--|-4-6-77----------------|
B|----------7---------7------|--------55-7-9-1111-44-|
G|--------8---------8--------|-----------------------|
D|------9---------9----------|-----------------------|
A|---------------------------|-----------------------|
E|---------------------------|-----------------------|

guest
Wanna post a correction for this tab? Suggest correction