Oops, an error
Loading. Please wait.

Musettas Wlatz solo tab

by Rent
2,669 views 1 this week
2 commentsread comments
1 2 3 4 5
x 4
add to favorites
×
Save as Personal and add changes to this tab that will be seen only by you. Learn more ›
×
You can save this tab as Personal to edit and correct it or add notes. All changes will be seen only by you. Learn more »
launch autoscroll
font size
0
reset
how to read this tab
guitar tuner
edit
Autoscroll
slow
fast
+/-
esc
set tempo
stop
Author
Difficulty
Okay, this solo was taken from the Easy Piano book for RENT, and I converted it into tab 
Also, I moved the last three notes down an octave, because they sounded nicer.

E----------------|
A--1---------1-0-|
D----------0-----|
G--------2-------|
B------3---------|
E----------------|


E------------|
A--------0---|
D------0---2-|
G----2-------|
B--3---------|
E------------|


E------------------|
A----0-1-0---1-----|
D--2-------2-------|
G--------------3-3-|
B------------------|
E------------------|


E------------------|
A------0-----0-----|
D--0-2---2-0-------|
G--------------2-2-|
B------------------|
E------------------|


E--------------|
A--1-------1-0-|
D--------0-----|
G------2-------|
B----3---------|
E--------------|


E------------|
A--------0---|
D------0---2-|
G----2-------|
B--3---------|
E------------|


E----------3-0---------|
A------0-1-----3-1-----|
D--2-2-------------2---|
G--------------------2-|
B----------------------|
E----------------------|

E------------|
A------------|
D--0-2-------|
G------------|
B------2-3-3-|
E------------|


Well, there it is, my first tab. Enjoy.

            
            
Suggest correction
Creating personal tab
Creating personal tab
You can edit any tab online and save it as your Personal.

You can edit, replace or remove any tab part or add personal notes – all changes will be seen only by you.

Personal tabs can be accessed anytime from any device, even offline.
Learn more »
comments
print report bad tab
2 comments total.
0 reply
Scratched 10 Feb 26, 2007 12:43 PM

The tab sounds right, but the strings are labeled upside down.

It should be labeled like this
e|-------------|
B|-1-------1-0-|
G|-------0-----|
D|-----2-------|
A|---3---------|
E|-------------|

Also, Adam Paschal's character plays the song one octave up from the way this tab is notated.

0 reply
Gundam pilota09 40 Jan 03, 2009 03:14 PM

he said it was from a piano book and since guitar is written one octave lower than piano than explains why its lower

guest
You may want to rate the tab now too:
select rating
Wanna post a correction for this tab? Suggest correction