Oops, an error
Loading. Please wait.

Cant Fight This Feeling Tab

version 2
version 2

Solo

Whole song

Interactive

9,203 views 9 this week
1 commentread comment
1 2 3 4 5
x 3
add to favorites
launch autoscroll
font size
0
reset
how to read this tab
guitar tuner
Autoscroll
slow
fast
+/-
esc
set tempo
stop
Help us to improve Ultimate-Guitar.com Take our survey!
×
Author
Difficulty
intermediate
-----------------------------------------------------------------
I Can't Fight This Feeling- REO Speedwagon
-----------------------------------------------------------------
Tabbed by: Lopope

Tuning: Standard

e|--------------------------------------------xxxx---------------|
B|------------------------------------5-------xxxx---------------|
G|----14///////////--*4b6v---4b6r4-2-4-4b6~---xxxx---------------|
D|--------------------------------------------xxxx---------------|
A|--------------------------------------------xxxx---------------|
E|--------------------------------------------xxxx---------------|

e|---------------------------------xxx---------------------------|
B|---------------------------------xxx------------------9b10~~///|
G|---4b6--4b6~-4b6r4--2-4-9b11~----xxx--9b11~~////--9-7----------|
D|---------------------------------xxx---------------------------|
A|---------------------------------xxx---------------------------|
E|---------------------------------xxx---------------------------|

e|-----------21p17--------------21p17--------------21p17---------|
B|--10p9p7---------17-19p17-17--------17-19p17 17---------17-----|
G|---------------------------------------------------------------|
D|---------------------------------------------------------------|
A|---------------------------------------------------------------|
E|---------------------------------------------------------------|

e|---------------------------------------------------------------|
B|--17b19~--17b19r17~-17B19////----------------------------------|
G|---------------------------------------------------------------|
D|---------------------------------------------------------------|
A|---------------------------------------------------------------|
E|---------------------------------------------------------------|



| b  bend
| h  hammer-on
| p  pull-off
| ~  sustain note
| v  vibrato
| *  harmonic
| x  mute note
| /  slide down
| r  Return to original note you bended
| B  Gradual bend
Suggest correction
Give kudos to tab author, rate the tab!
1 2 3 4 5
comments
print report bad tab
1 comment total.
+1 reply
Lopope 99 Dec 04, 2011 02:18 PM

e|-------21p17--------------21p17--------------21p17---------|
B|-------------17-19p17-17--------17-19p17-17---------17-----|

Should be:
e|-------21p17----19p17-----21p17----19p17-----21p17---------|
B|-------------17-------17--------17-----------------17------|

guest
You may want to rate the tab now too:
select rating
Wanna post a correction for this tab? Suggest correction