Oops, an error
Loading. Please wait.

In My Dreams Bass Tab

1,107 views 6 this week
no commentswrite comment
1 2 3 4 5
please rate
add to favorites
launch autoscroll
font size
0
reset
guitar tuner
Autoscroll
slow
fast
+/-
esc
set tempo
stop
Help us to improve Ultimate-Guitar.com Take our survey!
×
Author
IN MY DREAMS
Reo Speedwagon
Tab: avill616@yahoo.com

this is for Mine Valeroso.. 

Intro:
G|---------------------------|----------------------------------|
D|---------------------------|----------------------------------|
A|-------9-9-------9-9-------|-----9-------9-7---7-9-9------9---|
E|-7-7~------7-7~-------7-7~-|-7-7--7---7-7---------7--7~-----7-|

Verse1:
G|-------------------------------------|--------------------------------|
D|-------------------------------------|--------------------------------|
A|-----9-------9-7---7-9-9-----9-9~----|-----9--------9-7---9-9~---9-9~-|
E|-7-7--7---7-7---------7--7~---7----7-|-7-7--7---7-7---------------7---|

Pre Chorus:
G|----------------------------------------------|  |------------------------|
D|----------------------------------------------|  |------------------------|
A|-7---9---7--7-7--9-------------------7--9~----|  |------9~----------9~----|
E|--------------------9-9--7-7---9--7---------7-|  |-7-7-----7---7-7------7-|

Verse2:
G|-------------------------------------|--------------------------------|
D|-------------------------------------|--------------------------------|
A|-----9-------9-7---7-9-9-----9-9~----|-----9--------9-7---9-9~---9-9~-|
E|-7-7--7---7-7---------7--7~--------7-|-7-7--7---7-7---------------7---|

Pre Chorus:
G|-------------------------------------------|
D|-------------------------------------------|
A|-7---9---7--7-7--9-------------------7--9~-|
E|--------------------9-9--7-7---9--7--------|

Chorus:
G|--------------------------------------------------------------------|
D|---------------6----------------------5-6--6-8---8-----------6------|
A|-6--6-7--7-9--9--9-7--7-6--6-7--7-6-9-------7---7-6--6-9---7---9----|
E|------------------------------------------------------------7-----7-|

Adlib:
G|-------------------------------|
D|------------6------------------|
A|-------9--9---9---7--6--9----9-|
E|-7-9--9--------------------2/--|


Bridge:
G|------------------|---------------|
D|------------------|---------------|
A|-7--7-7--------6--|-7--7-7--------|
E|--------7--7-9----|--------7--6-7-|

G|---------------------------11-11-11-11-11-|
D|------------------------------------------|
A|-7--0-0--11--9-9---------9----------------|
E|------------------9--9-9------------------|
Chorus:
G|------------------------------------------------------------------|
D|---------------6----------------------5-6--6-8----8-----------6---|
A|-6--6-7--7-9--9--9-7--7-6--6-7--7-6-9---------7--7-6--6-9---7---9-|
E|-------------------------------------------------------------7----|

Last Chorus:
G|------------------------------------------------------------------|
D|---------------6----------------------5-6--6-8----8-----------6---|
A|-6--6-7--7-9--9--9-7--7-6--6-0--7-6-9---------7--7-6--6-9---7---9-|
E|-------------------------------------------------------------7----|

Ending:
G|----------------------------|------------------------------|
D|----------------------------|------------------------------|
A|---------9---11---9---7---9-|------------------------------|
E|--7--9----------------------|--77---77---77---77---77---77-|


Suggest correction
What's this?
You can suggest a correction to this tab. Community and Mods will review your correction and vote to approve or reject it.
comments
We did not receive enough feedback on this tab! Please rate:
print report bad tab
1 2 3 4 5
guest
You may want to rate the tab now too:
select rating
Please do not post tabs as comments. Select "correction" instead!