Oops, an error
Loading. Please wait.

Fragile tab

243 views 1 this week
no commentswrite comment
1 2 3 4 5
3 more votes to show rating
add to favorites
×
Save as Personal and add changes to this tab that will be seen only by you. Learn more ›
×
You can save this tab as Personal to edit and correct it or add notes. All changes will be seen only by you. Learn more »
launch autoscroll
font size
0
reset
how to read this tab
guitar tuner
edit
Autoscroll
slow
fast
+/-
esc
set tempo
stop
Difficulty
these are just parts of the song you see in the AAA tv performence steve was playing 
these chords most of the way through on acoustic
i havnt put the strum pattern but you can figure that out your self.
this part is for the chorus and verse

E|---------------------------------------------------------------------------|
B|-10--11----6-----5---------------------------------------------------------|
G|-10--10----5-----5------he changes back from the last 2 chords real fast---|
D|-8---8-----3-----3-------if you want you can do that u can but its easya---|
A|-8---8-----3-----3-------to leave it out-----------------------------------|
E|---------------------------------------------------------------------------|

there is a part that goes "its just a picture...its just a memory" ect.
E|---------------------------------------------------------------------------|
B|--10--11---13----8---------------------------------------------------------|
G|--10--10---12----7---------------------------------------------------------|
D|--8---8----10----5---------------x2----------------------------------------|
A|--8---8----10----5---------------------------------------------------------|
E|---------------------------------------------------------------------------|


tabbed by j.woessy

            
            
Suggest correction
Creating personal tab
Creating personal tab
You can edit any tab online and save it as your Personal.

You can edit, replace or remove any tab part or add personal notes – all changes will be seen only by you.

Personal tabs can be accessed anytime from any device, even offline.
Learn more »
Give kudos to tab author, rate the tab!
1 2 3 4 5
comments
print report bad tab
guest
Wanna post a correction for this tab? Suggest correction