Oops, an error
Loading. Please wait.

Answering Machine Tab

16,497 views 33 this week
5 commentsread comments
1 2 3 4 5
accurate
x 7
add to favorites
launch autoscroll
font size
0
reset
how to read this tab
guitar tuner
Tab Pro tools
  • play this tab
  • loop segment
  • change instrument
  • show fretboard
  • metronome
×
Best way to learn
"Answering Machine"
Autoscroll
slow
fast
+/-
esc
set tempo
stop
Contributor
Band: The Replacements
Song: Answering Machine
Album: Let It Be
Year: 1984

Intro
						               X4
e||----------------------------------||
B||------5-----4----------------4----||
G||*-------4------4-------------4-4-*||
D||*---4------------4----6-4----4---*||
A||--2--------2--------2-----2--2----||
E||----------------------------------||

Verse
e|---------------------2-2----2---2---2--|
B|-5—-4-5—-4-5—-4-5—-4-2-2----2---2---2--|
G|-2—-2-2—-2-2—-2-2—-2-3-3----3---3---3--|
D|-2—-2-2—-2-2—-2-2—-2-4-4----4---4---4--|
A|-0—-0-0—-0-0—-0-0—-0-4-4----4---4---4--|
E|---------------------2-2----2---2---2—-|

e|-----------------------------------------------|
B|-5—-4-2—-5—-4-5-4------------------------------|
G|-2—-2-2—-2—-2-2-2—-11--11-11-11-11-11-13-----8-|
D|-2—-2-2—-2—-2-2-2—-9---9--9--9--9--9—-9---11-x-|
A|-0—-0-0—-0—-0-0-0—-7---7--7--7--7--7—-7---9—-9-|
E|------------------------------------------7—-7-|

e|---------------------2-2----2---2---2--|
B|-5—-4-5—-4-5—-4-5—-4-2-2----2---2---2--|
G|-2—-2-2—-2-2—-2-2—-2-3-3----3---3---3--|
D|-2—-2-2—-2-2—-2-2—-2-4-4----4---4---4--|
A|-0—-0-0—-0-0—-0-0—-0-4-4----4---4---4--|
E|---------------------2-2----2---2---2—-|

Chorus
e||----------------------------------|
B||--5---5-4-------------------------|
G||*-6---6-6-6-8—-13-13\11\9-9/11-11-|
D||*-6---6-6-6-6—-11-11\9-\7-7/9—-9--|
A||--4---4-4-4-4-----0—-0—-0-0-0—-0--|
E||----------------------------------|

					       X2
e|-------------------------------||
B|-------------------------------||
G|—-11--11-11-11-11-11-13-----8-*||
D|—-9---9--9--9--9--9—-9---11-x-*||
A|—-7---7--7--7--7--7—-7---9—-9--||
E|-------------------------7—-7--||

Leave a comment if you know how to correctly play the intro. 

Notation

\		slide down
/		slide up
x		mute
comments
print report bad tab
5 comments total. Showing first comments.
0 reply
wag89 wrote on February 1 2009, 10:15 pm

this seems pretty close to me, good job!

0 reply
blindingsheen wrote on November 21 2009, 06:44 pm

7-9-13, eh

0 reply
elefanten wrote on June 8 2010, 02:20 pm

this is easier


e|-----------------------------------------------|
B|-5—-4-2—-5—-4-5-4---------------------9--------|
G|-2—-2-2—-2—-2-2-2—-11--11-11-11-11-11-x------8-|
D|-2—-2-2—-2—-2-2-2—-9---9--9--9--9--9—-9---11-x-|
A|-0—-0-0—-0—-0-0-0—-7---7--7--7--7--7—-7---9—-9-|
E|------------------------------------------7—-7-|

I want to post or [tab]
guest
You may want to rate the tab now too:
select rating
Please do not post tabs as comments. Select "correction" instead!