Oops, an error
Loading. Please wait.

Answering Machine Tab

18,321 views 24 this week
6 commentsread comments
1 2 3 4 5
x 8
add to favorites
launch autoscroll
font size
0
reset
how to read this tab
guitar tuner
Autoscroll
slow
fast
+/-
esc
set tempo
stop
Author
Band: The Replacements
Song: Answering Machine
Album: Let It Be
Year: 1984

[Intro]
e||----------------------------------||
B||------5-----4----------------4----||
G||*-------4------4-------------4-4-*||
D||*---4------------4----6-4----4---*||  X4
A||--2--------2--------2-----2--2----||
E||----------------------------------||

[Verse]
e|---------------------2-2----2---2---2--|
B|-5—-4-5—-4-5—-4-5—-4-2-2----2---2---2--|
G|-2—-2-2—-2-2—-2-2—-2-3-3----3---3---3--|
D|-2—-2-2—-2-2—-2-2—-2-4-4----4---4---4--|
A|-0—-0-0—-0-0—-0-0—-0-4-4----4---4---4--|
E|---------------------2-2----2---2---2—-|

e|-----------------------------------------------|
B|-5—-4-2—-5—-4-5-4------------------------------|
G|-2—-2-2—-2—-2-2-2—-11--11-11-11-11-11-13-----8-|
D|-2—-2-2—-2—-2-2-2—-9---9--9--9--9--9—-9---11-x-|
A|-0—-0-0—-0—-0-0-0—-7---7--7--7--7--7—-7---9—-9-|
E|------------------------------------------7—-7-|

e|---------------------2-2----2---2---2--|
B|-5—-4-5—-4-5—-4-5—-4-2-2----2---2---2--|
G|-2—-2-2—-2-2—-2-2—-2-3-3----3---3---3--|
D|-2—-2-2—-2-2—-2-2—-2-4-4----4---4---4--|
A|-0—-0-0—-0-0—-0-0—-0-4-4----4---4---4--|
E|---------------------2-2----2---2---2—-|

[Chorus]
e||----------------------------------|
B||--5---5-4-------------------------|
G||*-6---6-6-6-8—-13-13\11\9-9/11-11-|
D||*-6---6-6-6-6—-11-11\9-\7-7/9—-9--|
A||--4---4-4-4-4-----0—-0—-0-0-0—-0--|
E||----------------------------------|

                                               X2
e|-------------------------------||
B|-------------------------------||
G|—-11--11-11-11-11-11-13-----8-*||
D|—-9---9--9--9--9--9—-9---11-x-*||
A|—-7---7--7--7--7--7—-7---9—-9--||
E|-------------------------7—-7--||

Leave a comment if you know how to correctly play the intro.

************************************

| x  Dead note
| /  Slide up
| \  Slide down

************************************
Suggest correction
comments
print report bad tab
6 comments total. Showing first comments.
0 reply
wag89 10 Feb 01, 2009 05:15 PM

this seems pretty close to me, good job!

0 reply
blindingsheen 31 Nov 21, 2009 01:44 PM

7-9-13, eh

0 reply
elefanten 46 Jun 08, 2010 10:20 AM

this is easier

e|-----------------------------------------------|
B|-5—-4-2—-5—-4-5-4---------------------9--------|
G|-2—-2-2—-2—-2-2-2—-11--11-11-11-11-11-x------8-|
D|-2—-2-2—-2—-2-2-2—-9---9--9--9--9--9—-9---11-x-|
A|-0—-0-0—-0—-0-0-0—-7---7--7--7--7--7—-7---9—-9-|
E|------------------------------------------7—-7-|

guest
You may want to rate the tab now too:
select rating
Wanna post a correction for this tab? Suggest correction