Oops, an error
Loading. Please wait.

Cant Hardly Wait Tab

version 1
version 1

Whole song

50,652 views 75 this week
1 commentread comment
1 2 3 4 5
accurate
x 9
add to favorites
launch autoscroll
font size
0
reset
how to read this tab
guitar tuner
Autoscroll
slow
fast
+/-
esc
set tempo
stop
Help us to improve Ultimate-Guitar.com Take our survey!
×
Can't Hardly Wait
The Replacements
Album: Please to Meet Me

Here is how I play this one.
Play the intro riff for all of the verses.  The chords are
close approximations.   (Just play the riff.)


[Riff]

e|--------------------|
B|--------------------|
G|-2------------------|
D|---4--2--0----2--0--|
A|--------------------|
E|--------------------|

D(F#bass)   Bm     D
Write you a letter tomorrow

  D(F#bass)     Bm      D
Tonight I can't hold a pen

D(F#bass)     Bm              D
Someone got a stamp that I can borrow

   D(F#bass)     Bm               D
I promise not to blow the address again

A           Bm           D
Lights That flash in the evening

A          Bm           D
Through a crack in the drapes


[Riff]


D(F#bass) Bm      D
Jesus     rides beside me

D(F#bass)     Bm     D
He never buys and he smokes

A
Hurry-up, Hurry-up

               D
Ain't you had enough of this stuff?

D(F#bass)       Bm                      D
Ashtray floors, dirty clothes and filthy jokes


  A          Bm       D
I see you're high and lonesome

A       Bm      D
Try and try and try

e|----0---2-0-0-----------------0---2-0-0-----3--------?---|
B|3------------------3------3-----------------------?-?----|
G|------------------------------------------------?--------|
D|---------------------------------------------------------|
A|---------------------------------------------------------|
E|---------------------------------------------------------|

A           Bm           D
Lights That flash in the evening

A           Bm        D
Through a hole in the drapes

A       Bm            F#m
I`ll be home when I'm sleeping

A       Bm     D
I can't hardly wait

N.C.    D(F#bass) Bm       D
I can't wait,       hardly wait
Suggest correction
comments
print report bad tab
1 comment total.
0 reply
djzman321 10 wrote on December 16 2003, 12:00 am

awesome tab man

guest
You may want to rate the tab now too:
select rating
Wanna post a correction for this tab? Suggest correction