Oops, an error
Loading. Please wait.

Cant Hardly Wait Tab

version 2
version 2

Whole song

25,050 views 39 this week
4 commentsread comments
1 2 3 4 5
x 5
add to favorites
launch autoscroll
font size
0
reset
how to read this tab
guitar tuner
Autoscroll
slow
fast
+/-
esc
set tempo
stop
Help us to improve Ultimate-Guitar.com Take our survey!
×
Author
-------------------------------------------------------------------------------
                  Can't Hardly Wait (Tim Version) - The Replacements
-------------------------------------------------------------------------------
Tabbed by:

An outtake from the Tim recording sessions, this was produced by Alex Chilton

[Intro/Main Riff]

e|-----------------------------------------------------------------------------|
B|-----------------------------------------------------------------------------|
G|--2-------(2)(2)(2)----------------------------------------------------------|
D|-----4--2--0--2--0----four times-----2p0-------------------------------------|
A|-------------------------------------------2p0-------------------------------|
E|------------------------------------------------2p0--------------------------|

D       Bm          D
I'll be there in an hour

D                  Bm             D
(It'd) take half a month there on foot

D              Bm              D
Watering hole, scummy watering tower

D         Bm           D
Said "All aboard" if I could

A       Bm     D           e|----------------------------|
I'll be sad in heaven      B|-12--10-----12p10-----------| 
                           G|--------11---------11\------|
                           D|----------------------------|
                           A|----------------------------|
                           E|----------------------------|(x2)
A         Bm        D
You won't follow me there

(me there)

D     Bm           D
Jesus rides beside me
D          Bm  D
Never buys any smokes
A
Hurry up, Hurry up
          D
I've got enough of this stuff

D               Bm                    D       e|---------------------------|
Ashtray floors, dirty clothes, filthy jokes   B|--------3--5^--5p3---------|
                                              G|-2---4-------------4p2-----|
                                              D|-----------------------4p2-|
                                              A|---------------------------|
                                              E|---------------------------|

A          Bm           D             e|---------------------------|
The lights flash in the evening       B|-12--10-----12p10----------| 
                                      G|--------11---------11\-----|
                                      D|---------------------------|
                                      A|---------------------------|
                                      E|---------------------------|(x2)

A             Bm          D
I guess we'll follow them there

A          Bm           D         e|----------------------------|
I'll be sad in heaven             B|-12--10-----12p10-----------| 
                                  G|--------11---------11\------|
                                  D|----------------------------|           
                                  A|----------------------------|
                                  E|----------------------------|(x2)


A                 Bm          D     e|----------------------------|
If I don't find a hole in the gate  B|-12--10-----12p10-----------| 
                                    G|--------11---------11\------|
                                    D|----------------------------|
                                    A|----------------------------|
                                    E|----------------------------|

A        Bm
Climb on top of this scummy water tower, screaming


A        Bm     D
"I can't hardly wait!"


D
I can't wait
Oh I can't wait
I can't wait
I can't wait
I can't wait
I can't wait til it's over

[Solo]

e|---------------------------------------10------------------------------------|
B|----------------------12p10----10--12-----12---------------------------------|
G|-----------------x4---------11-----------------etc.--------------------------|
D|-(14p12----------------------------------------------------------------------|
A|---------14p12)--------------------------------------------------------------|
E|-----------------------------------------------------------------------------|

ending gtr lead:

e|---------------------------------------------------------------------------|
B|----------------10---------------------------------------------------------|
G|--11------9--11-----11\7---------------------------------------------------|
D|------12-------------------------------------------------------------------|
A|---------------------------------------------------------------------------|
E|---------------------------------------------------------------------------|


************************************

| (n)  Ghost note
| p    Pull-off
| \    Slide down
| x    dead note

************************************
Suggest correction
comments
print report bad tab
4 comments total. Showing first comments.
0 reply
Domokunrock 21 Jun 06, 2011 09:06 AM

Great tab, but the beginning is one string too high (easy typo to make)

0 reply
jtn191 996 Jun 12, 2011 03:51 PM

thanks!, fixed

0 reply
toddszopo 10 Apr 17, 2016 07:46 PM

wtf? where did the words for the first verse come from? good chords though

guest
You may want to rate the tab now too:
select rating
Wanna post a correction for this tab? Suggest correction