Oops, an error
Loading. Please wait.

Here Comes A Regular Tab

5,335 views 1 this week
no commentswrite comment
1 2 3 4 5
please rate
add to favorites
launch autoscroll
font size
0
reset
how to read this tab
guitar tuner
Autoscroll
slow
fast
+/-
esc
set tempo
stop
Help us to improve Ultimate-Guitar.com Take our survey!
×
Author
Difficulty
Capo
novice
4th fret
OK, this song is played with a capo on the 4TH fret for guitar I, not for guitar II... 
by Chicken Chode

Guitar I~ intro/verse

e|-6-6-6-6-6-6--4-4-4-4-4-4--7-7-7-7-7-7-|
B|-7-7-7-7-7-7--6-6-6-6-6-6--4-4-4-4-4-4-|
G|-6-6-6-6-6-6--6-6-6-6-6-6--4-4-4-4-4-4-|
D|-4-4-4-4-4-4--6-6-6-6-6-6--4-4-4-4-4-4-|
A|--------------4-4-4-4-4-4--6-6-6-6-6-6-|
E|---------------------------7-7-7-7-7-7-|

Guitar II~ intro/verse

e|-14-14-14-14--13-13-13-13--11-11-11-11-|
B|-14-14-14-14--14-14-14-14--12-12-12-12-|
G|---------------------------------------|
D|---------------------------------------|
A|---------------------------------------|
E|---------------------------------------|

Guitar I~ pre chorus

e|-4-4-4-4-4-4--7-7-7-7-7-7--4-4-4-4-4-4--4-4-4-4-4-4-|
B|-6-6-6-6-6-6--6-6-6-6-6-6--6-6-6-6-6-6--6-6-6-6-6-6-|
G|-6-6-6-6-6-6--6-6-6-6-6-6--6-6-6-6-6-6--4-4-4-4-4-4-|
D|-6-6-6-6-6-6--6-6-6-6-6-6--6-6-6-6-6-6--6-6-6-6-6-6-|
A|-4-4-4-4-4-4--4-4-4-4-4-4--4-4-4-4-4-4--4-4-4-4-4-4-|
E|--------------7-7-7-7-7-7---------------------------|

Guitar II~ pre chorus

e|-13-13-13-13--11-11-11-11--13-13-13-13--16-16-16-16-|
B|-14-14-14-14--12-12-12-12--14-14-14-14--14-14-14-14-|
G|----------------------------------------------------|
D|----------------------------------------------------|
A|----------------------------------------------------|
E|----------------------------------------------------|

Guitar I~ chorus

e|-6-6-6-6-6-6--4-4-4-4-4-4--7-7-7-7-7-7-|
B|-7-7-7-7-7-7--6-6-6-6-6-6--4-4-4-4-4-4-|
G|-6-6-6-6-6-6--6-6-6-6-6-6--4-4-4-4-4-4-|
D|-4-4-4-4-4-4--6-6-6-6-6-6--4-4-4-4-4-4-|
A|--------------4-4-4-4-4-4--6-6-6-6-6-6-|
E|---------------------------7-7-7-7-7-7-|

e|-6-6-6-6-6-6--4-4-4-4-4-4--7-7-7-7-7-7-|
B|-7-7-7-7-7-7--6-6-6-6-6-6--4-4-4-4-4-4-|
G|-6-6-6-6-6-6--6-6-6-6-6-6--4-4-4-4-4-4-|
D|-4-4-4-4-4-4--6-6-6-6-6-6--4-4-4-4-4-4-|
A|--------------4-4-4-4-4-4--6-6-6-6-6-6-|
E|---------------------------7-7-7-7-7-7-|

e|-6-6-6-6-6-6--4-4-4-4-4-4--7-7-7-7-7-7-|
B|-7-7-7-7-7-7--6-6-6-6-6-6--4-4-4-4-4-4-|
G|-6-6-6-6-6-6--6-6-6-6-6-6--4-4-4-4-4-4-|
D|-4-4-4-4-4-4--6-6-6-6-6-6--4-4-4-4-4-4-|
A|--------------4-4-4-4-4-4--6-6-6-6-6-6-|
E|---------------------------7-7-7-7-7-7-|

e|-4-4-4-4-4-4--7-7-7-7-7-7-|
B|-6-6-6-6-6-6--6-6-6-6-6-6-|
G|-6-6-6-6-6-6--6-6-6-6-6-6-|
D|-6-6-6-6-6-6--6-6-6-6-6-6-|
A|-4-4-4-4-4-4--4-4-4-4-4-4-|
E|--------------7-7-7-7-7-7-|

Guitar II~ chorus

e|-14-14-14-14--13-13-13-13--11-11-11-11-|
B|-14-14-14-14--14-14-14-14--12-12-12-12-|
G|---------------------------------------|
D|---------------------------------------|
A|---------------------------------------|
E|---------------------------------------|

e|-14-14-14-14--13-13-13-13--11-11-11-11-|
B|-14-14-14-14--14-14-14-14--12-12-12-12-|
G|---------------------------------------|
D|---------------------------------------|
A|---------------------------------------|
E|---------------------------------------|

e|-14-14-14-14--13-13-13-13--11-11-11-11-|
B|-14-14-14-14--14-14-14-14--12-12-12-12-|
G|---------------------------------------|
D|---------------------------------------|
A|---------------------------------------|
E|---------------------------------------|

e|-13-13-13-13--11-11-11-11-|
B|-14-14-14-14--12-12-12-12-|
G|--------------------------|
D|--------------------------|
A|--------------------------|
E|--------------------------|

Enjoi
Suggest correction
Give kudos to tab author, rate the tab!
1 2 3 4 5
comments
print report bad tab
guest
You may want to rate the tab now too:
select rating
Please do not post tabs as comments. Select "correction" instead!