Oops, an error
Loading. Please wait.

I Hate Music Bass Tab

1,941 views 1 this week
no commentswrite comment
1 2 3 4 5
please rate
add to favorites
launch autoscroll
font size
0
reset
guitar tuner
Autoscroll
slow
fast
+/-
esc
set tempo
stop
Help us to improve Ultimate-Guitar.com Take our survey!
×
Contributor
KasanDude 612
----------------------------------------------------------------------------
			     I HATE MUSIC - The Replacements
----------------------------------------------------------------------------

Tabbed By : KasanDude
e-mail: Azeroc@hotmail.com

Tuning: Standard

Use a pick to get the right sound. And, yes, I know the "7h9" parts on the E string can 
played as "2h4" on the A string, but that doesn't sound like the way Tommy Stinson plays 
so I'm sticking to the "7h9".

Note: During the "Tommy said so..." parts and the guitar solo, I didn't tab out the 
number of notes, because it's hard to count them that fast, but if you listen to the 
recording, you'll get the idea. Everywhere else, I put the exact number of notes, I believe.

Intro:

G|---------------|
D|---------------|
A|---------------|
E|-----7h9-99----|     x 21 (stop playing right before he starts singing)


"I hate music"
G|---------------------------------------|
D|------------------------------9-9------|
A|---------------------7-7-9-9-----------|
E|------------------9--------------------|  After every verse sung (x 2)

"I hate music, sometimes I don't"
G|------------------------------------------------------------------------|
D|------------------------------------------------------------------------|
A|-------------------7-7-9-9-9h11-11-11-9h11-11-11-9h11-11-11-9h11-11-11--|
E|--7h9-99-7h9-99---------------------------------------------------------|

"I hate my vegetables"
G|-------------------------------------------------|
D|---------------------------------------9-9-------|
A|-------------------------------7-7-9-9-----------|
E|----------------------------9--------------------|  After every verse sung (x 2)

"I hate music, it's got too many notes"
G|----------------------------------------------------------------------|
D|----------------------------------------------------------------------|
A|----------------------------------------------------------------------|
E|-----7h9-99-7h9-99-7h9-99----2h4-44444-2h4-44444----------------------|

"Tommy said soooo... Tommy said sooo..... Tommy said so....       Tommy said so......."
G|----------------------------------------------------|
D|----------------------------------------------------|
A|-4444444444-5555555555-7777777777-9999999999--------|
E|----------------------------------------------------|

G|------------------------------------------------------------------------|
D|------------------------------------------------------------------------|
A|------------------------------------------------------------------------|
E|-----7h9-99-7h9-99-7h9-99-7h9-99-7h9-99-7h9-99-7h9-99-7h9-99------------|

"I hated highschool"
G|-------------------------------------------------|
D|---------------------------------------9-9-------|
A|-------------------------------7-7-9-9-----------|
E|----------------------------9--------------------|  (x 2)

G|-----------------------------------------------------------------------|
D|-----------------------------------------------------------------------|
A|-------------------------9h11-11-11-9h11-11-11-9h11-11-11-9h11-11-11---|
E|-7h9-99-7h9-99-7h9-99-222/---------------------------------------------|

"I hate my records"
G|-------------------------------------------------|
D|---------------------------------------9-9-------|
A|-------------------------------7-7-9-9-----------|
E|----------------------------9--------------------|   (x 2)

"I hate music, I wanna ride my bike"
G|------------------------------------------------------------------------|
D|------------------------------------------------------------------------|
A|------------------------------------------------------------------------|
E|-----7h9-99-7h9-99-7h9-99----2h4-44444-2h4-44444------------------------|

"Tommy said soooo... Tommy said sooo...     Tommy said so....   Tommy said so......."
G|----------------------------------------------------|
D|----------------------------------------------------|
A|-4444444444-5555555555-7777777777-9999999999--------|
E|----------------------------------------------------|

Guitar solo:
G|----------------------------------------------------|
D|----------------------------------------------------|
A|-4444444444-5555555555-7777777777-9999999999--------|
E|----------------------------------------------------|

G|----------------------------------------------------|
D|----------------------------------------------------|
A|-4444444444-5555555555-7777777777-9999999999--------|
E|----------------------------------------------------|

G|---------------------------------------------------------|
D|---------------------------------------------------------|
A|-2h44444-2h44444 55555-55555-5h7777-5h7777-7h999-7h9999--|
E|---------------------------------------------------------|

G|----------------------------------------------------------------------|
D|-----------------------------------------------------------------11---|
A|-9-9/11-9-7-9-7-5-4--(hold note for a few seconds,)--9-9-7h9----------|
E|---------------------------------------------------------------9------|

The end. Tabbed the whole thing by ear, hope you like it.

-KasanDude
comments
We did not receive enough feedback on this tab! Please rate:
print report bad tab
1 2 3 4 5
I want to post or [tab]
guest
You may want to rate the tab now too:
select rating
Please do not post tabs as comments. Select "correction" instead!