Oops, an error
Loading. Please wait.

I Will Dare Chords

version 1
version 1

Whole song

Interactive

23,255 views 51 this week
4 commentsread comments
1 2 3 4 5
x 9
add to favorites
launch autoscroll
font size
0
reset
transpose
0
reset
simplify chords
display chords
guitar tuner
Autoscroll
slow
fast
+/-
esc
set tempo
stop
Help us to improve Ultimate-Guitar.com Take our survey!
×
[Chords used during verse]
G: 3 2 0 0 0 3
A7: x 0 2 2 2 3
Em7: 0 2 2 0 3 3

[Intro]
G-A7-Em7-A7

[Verse 1]
   G          A7      Em7    A7
How young are you?
    G      A7    Em7   A7
How old am I?
      G         A7    Em7   A7
Let's count the rings
 G        A7    Em7   A7
around my eyes

[Verse 2]
How smart are you?
How dumb am I?
Don't count any of my advice

[Chorus]
Em                            C
e|----0----0--0-0--0-----0--0-0------------------------------|
B|----3----1--0-1--3-----1--0-1-3-----1--0-1-3---1---0-1-----|
G|----0----0--0-0--0-----0--0-0-0-----0--0-0-0---0---0-0-----|
D|----2----2--2-2--2-----2--2-2-2-----2--2-2-2---2---2-2-----|
A|----2----2--2-2--2-----2--2-2-3-----3--3-3-3---3---3-3-----|
E|----0----0--0-0--0-----0--0-0------------------------------|
Oh, meet me any  place or any where or anytime now I don't

 D                                  C           A7
e|-0----0----0--0-0------0--0---0------------------3----|
B|-3----1----0--1-3------1--0---1-----3------------2----|
G|-2----2----2--2-2------2--2---2-----0------------0----|
D|-0----0----0--0-0------0--0---0-----2------------2----|
A|------------------------------------3------------0----|
E|------------------------------------------------------|
care, meet me tonight, If you will dare, I might dare

[Verse 3]
Call me on Thursday, if you will
Or call me on Wednesday, better still
Ain't lost yet, so I gotta be a winner
Fingernails and a cigarette's a lousy dinner
Young, are you?

[Chorus]
Meet me anyplace or anywhere or anytime
Now, I don't care, meet me tonight
If you will dare, I will dare

[Solo]
F-G7 (3x)
F-D
F-G7 (4x)

[Verse]
How young are you?
How old am I?
Let's count the rings around my eyes
How smart are you?
How smart are you?
How dumb am I?

[Chorus]
Meet me anyplace or anywhere or anytime
Now, I don't care, meet me tonight
If you will dare, I will dare
Meet me anyplace or anywhere or anytime
Now, I don't care, meet me tonight
If you will dare, I will dare

[Ending]
G
Suggest correction
comments
print report bad tab
4 comments total. Showing first comments.
0 reply
theflamingyouth 10 May 27, 2010 12:25 PM

Not a miilion miles a way but needs a different, well at least it sounds to me like it does anyway.

+1 reply
ufg43 10 Jul 26, 2010 11:36 AM

this isnt really a correction, but i think the riff in the song is:

 
e-------------------------------------------------
B-------------------------------------------------
G-------------------------------------------------
D-------------------------------------------------
A-----0--0-2-0-5-0---2--4--5-4--------------------
E-3-3---------------------------------------------

0 reply
Domokunrock 21 Apr 06, 2011 03:26 PM

e-------------------------------------------------
B-------------------------------------------------
G-------------------------------------------------
D-------------------------------------------------
A-------0--0-2-0-5-0---2--4--5-4------------------
E-3-3-2-------------------------------------------

just a tiny amendment. Also are you sure the Em7 is played during the intro (at the very least)?

guest
You may want to rate the tab now too:
select rating
Wanna post a correction for this tab? Suggest correction