Oops, an error
Loading. Please wait.

I Will Dare Tab

version 1
version 1

Whole song

Interactive

4,772 views 39 this week
3 commentsread comments
1 2 3 4 5
x 5
add to favorites
launch autoscroll
font size
0
reset
how to read this tab
guitar tuner
backing track
0:00
0:00
×
Best way to learn
"I Will Dare"
Autoscroll
slow
fast
+/-
esc
set tempo
stop
Author
Difficulty
  follow
intermediate
[Intro and Verse] Chords for Rhythm Guitar (Work out the pattern by listening to the song you lazy fool!)
e|--3--3--3--3--|
B|--3--2--3--2--|
G|--0--2--0--2--|
D|--0--2--2--2--|
A|--2--0--2--0--|
E|--3-----0-----|

[Main Riff] - Played during verses
e|-------------------------------------------------|
B|-------------------------------------------------|
G|-------------------------------------------------|
D|-------------------------------------------------|
A|-------0--0-2-0-5-0---2--4--5-4------------------|
E|-3-3-2-------------------------------------------|

[Chorus] (Borrowed from illinoize88)
  Em                            Cadd9
e|----0----0--0-0--0-----0--0-0------------------------------|
B|----3----1--0-1--3-----1--0-1-3-----1--0-1-3---1---0-1-----|
G|----0----0--0-0--0-----0--0-0-0-----0--0-0-0---0---0-0-----|
D|----2----2--2-2--2-----2--2-2-2-----2--2-2-2---2---2-2-----|
A|----2----2--2-2--2-----2--2-2-3-----3--3-3-3---3---3-3-----|
E|----0----0--0-0--0-----0--0-0------------------------------|
Oh, meet me any  place or any where or anytime now I don't

   D                                  Cadd9        A7
e|-0----0----0--0-0------0--0---0------------------3----|
B|-3----1----0--1-3------1--0---1-----3------------2----|
G|-2----2----2--2-2------2--2---2-----0------------0----|
D|-0----0----0--0-0------0--0---0-----2------------2----|
A|------------------------------------3------------0----|
E|------------------------------------------------------|
care, meet me tonight, If you will dare, I might dare

[Solo Chords]
F-G7 3x
F-D
F-G7
F-D
F-G7
F

[Solo]
e|-------1-------1-------------------3-------1-------1----------------------|
B|----------1h3-----1----------3----------------1h3-----1----------3-----6--|
G|---------------------2----------4------------------------2----------4-----|
D|------------------------3/5---------------------------------3/5-----------|
A|--------------------------------------------------------------------------|
E|--0h1---------------------------------0h1---------------------------------|

e|-------1-------1-------------------3------|-1-------1-------|
B|----------1h3-----1----------3------------|----1h3-----1h3--|
G|---------------------2----------4---------|-----------------|
D|------------------------3/5-----------2h3-|-----------------|
A|------------------------------------------|-----------------|
E|--0h1-------------------------------------|-----------------|

e|--13---------13---------13-------------------------15------|
B|------13h15------13h15------13-------------15--------------|
G|--------------------------------14-------------16------16--|
D|------------------------------------15/17------------------|
A|-----------------------------------------------------------|
E|-----------------------------------------------------------|

e|--13---------13---------13-----------------------------|
B|------13h15------13h15------13-----------------18------|
G|--------------------------------14---------16------16--|
D|------------------------------------15/17--------------|
A|-------------------------------------------------------|
E|-------------------------------------------------------|

e|--13---------13---------13-------------------------15------|
B|------13h15------13h15------13-------------15--------------|
G|--------------------------------14-------------16------16--|
D|------------------------------------15/17------------------|
A|-----------------------------------------------------------|
E|-----------------------------------------------------------|

e|--13---------13---------13-------------------------15------|
B|------13h15------13h15------13-------------15--------------|
G|--------------------------------14-------------16------16--|
D|------------------------------------15/17------------------|
A|-----------------------------------------------------------|
E|-----------------------------------------------------------|

[Mandolin Solo] for a third guitar using a chorus pedal
e|--13---------13---------13-------------------------15------|
B|------13h15------13h15------13-------------15--------------|
G|--------------------------------14-------------16------16--|
D|------------------------------------15/17------------------|
A|-----------------------------------------------------------|
E|-----------------------------------------------------------|

The part in brackets [] is repeated until necessary

Also during the last chorus there are some descending tremolos on the mandolin
Chords after solo - the transition back to the Main Riff
G5 B5 C5 D5

[Ending Chords]
G Bm C Bm
G Bm C D
G


[Structure]
[Intro]
[Verse]
[Chorus]
[Verse]
[Chorus]
[Solo]
[Verse with Mandolin Solo]
[Chorus]
[Ending]

************************************

| h  Hammer-on
| /  Slide up

************************************
Suggest correction
comments
print report bad tab
3 comments total.
+1 reply
Nero Galon 334 Jan 30, 2015 07:20 AM

Great job! This is accurate and very fun to play!

Although i'm pretty sure Paul would be playing his rhythm:

E|--3--3--3--3--
B|--3--2--3--2--
G|--0--2--0--2--
D|--0--2--2--2--
A|--2--0--2--0--
E|--3-----0-----

And Bob would be playing his lead:

e|-------------------------------------------------
B|-------------------------------------------------
G|-------------------------------------------------
D|-------------------------------------------------
A|-------0--0-2-0-5-0---2--4--5-4------------------
E|-3-3-2-------------------------------------------

An alternative to this if you want to play this solo during the verses would be to keep the G shape and after every few bass notes hit you strike the treble notes. This involves using the open D string to substitute the 5 on the A.

You can see what I mean better in this video. Its kinda fiddly but sounds pretty good for solo covers.

https://www.youtube.com/watch?v=KJ8nlsZIJUk

+1 reply
Nero Galon 334 Jan 30, 2015 07:26 AM

Oh yeah and I little tip is to use your thumb for the 0h1 on the low e string in the solo. So you're kinda having the classic Hendrix barre shape instead of the traditional barre chord shape. Much much easier!

guest
You may want to rate the tab now too:
select rating
Wanna post a correction for this tab? Suggest correction