Oops, an error
Loading. Please wait.

Iou tab

683 views 6 this week
no commentswrite comment
1 2 3 4 5
3 more votes to show rating
add to favorites
×
Save as Personal and add changes to this tab that will be seen only by you. Learn more ›
×
You can save this tab as Personal to edit and correct it or add notes. All changes will be seen only by you. Learn more »
launch autoscroll
font size
0
reset
how to read this tab
guitar tuner
edit
Autoscroll
slow
fast
+/-
esc
set tempo
stop
Replacements – IOU

Tab updated by Patrick M. Ryan, imageryan@gmail.com

Notes: The D, C, and B chords should all be played as barre chords with the root on the 5th string.
Remember that all of the fret numbers in the tab are relative to the capo.

capo II

riff A
--------------|
--------------|
2-2-4-2-5-4---|
2-2-4-2-5-4---|  4X
0-0-0-0-0-0---|
--------------|


[riff A]
Get me out of this stinkin' fresh air
C                B              [riff A]
Night and day in the electric chair
Step right up son
      C                  B               A
gonna show you something ain't never been done

[riff B]
 A   A   A   A      D  C  B
-------------------------------|
-------------------------------|
-2---2---2---2------7--5--4----|
-2---2---2---2------7--5--4----|
-0---0---0---0------5--3--2----|
---3---3---3-------------------|

Oh oh-oh,  oh-oh,  oh-oh

[riff A]
     you're all fucked.

[riff A]  4X

[riff A]
Listen, it don't cost much
      C       B                [riff A]
I lay down the line, and you suck [riff A]

Never do what you're told
C                    B           A   [riff A]

                                          [riff B]
There'll be time for dreamin' when you're old
           [riff B]
You're all wrong and I'm right

 

-5-5-----5-5----|
-5-5-----5-5----|
-----5/6--------| o
----------------| o
----------------|
----------------|


E                D
Please be on your honor

-----------------|
-----------------|
-----------------|
-----------------|
-------0-2-4-2---|
-2-0-2-----------|


E                (rest, drum break)
Please be on my side

-----------------------------8-8-8-8-8-8-8-8-8-5-5-8-5-5-|
-----------------------------8-8-8-8-8-8-8-8-8-5-5-8-5-5-|
---------------------------------------------------------|
---------------------------------------------------------|
-5-4-5--5-4-5--5-4-5--5-4-5------------------------------|
---------------------------------------------------------|

------------------------------|
------------------------------|
------------------------------|
------------------------------|
-5-4-5--5-4-5--5-4-5--5-4-5---|
------------------------------|

[riff B]

[riff A] 4x
[riff A]
Listen to the story all right
     D           C                          e-------------|
I'll lose it all right on that dotted line  B-----10-10---|  4X
                                            G-8/9--9--9---|
[riff A]
Step right up son
      C        B
gonna show you something ain't never been done


[riff B]
You're all wrong and I'm right

[riff B]
You're all wrong and I'm right

[riff A] 2x

A
You see I want it in writing, I owe you nothing
          want it in writing, I owe you nothing
          want it in writing

            
            
Suggest correction
Creating personal tab
Creating personal tab
You can edit any tab online and save it as your Personal.

You can edit, replace or remove any tab part or add personal notes – all changes will be seen only by you.

Personal tabs can be accessed anytime from any device, even offline.
Learn more »
Give kudos to tab author, rate the tab!
1 2 3 4 5
comments
print report bad tab
guest
You may want to rate the tab now too:
select rating
Wanna post a correction for this tab? Suggest correction