Oops, an error
Loading. Please wait.

Kiss Me On The Bus Tab

version 2
version 2

Whole song

5,815 views 3 this week
1 commentread comment
1 2 3 4 5
please rate
add to favorites
launch autoscroll
font size
0
reset
how to read this tab
guitar tuner
Autoscroll
slow
fast
+/-
esc
set tempo
stop
Help us to improve Ultimate-Guitar.com Take our survey!
×
Difficulty
novice
KISS ME ON THE BUS 


|--0------0-----0------0------0----X-X----------|
|--0------0-----0------0------0----X-X----------|
|--1------4-----6------6------6----X-X----------|
|--2------4-----7------7------7----9-9----------|
|--2------2-----7------7------7----9-9----------|
|--0------X-----5------4------5----7-7----------|
  On the bus   that's where we're ridin'


|--0------0-----0------0------0----X-X----------|
|--0------0-----0------0------0----X-X----------|
|--1------4-----6------6------6----X-X----------|
|--2------4-----7------7------7----9-9----------|
|--2------2-----7------7------7----9-9----------|
|--0------X-----5------4------5----7-7----------|
  On the bus    okay don't say hi  then



|------0-------------0------------0----------0--0-----------|
|------0-------------0------------0----------0--0-----------|
|------6-------------6------------6----------6--6-----------|
|------7-------------7------------7----------7--7-----------|
|------7-------------7------------7----------7--7-----------|
|------5-------------4------------3----------5--5-----------|
Your tongue, your transfer, your hand, your answer



|--0------0-----0------0------0----X-X----------|
|--0------0-----0------0------0----X-X----------|
|--1------4-----6------6------6----X-X----------|
|--2------4-----7------7------7----9-9----------|
|--2------2-----7------7------7----9-9----------|
|--0------X-----5------4------5----7-7----------|
  On the bus everyone's lookin' forward

|--0------0-----0------0------0----X-X----------|
|--0------0-----0------0------0----X-X----------|
|--1------4-----6------6------6----X-X----------|
|--2------4-----7------7------7----9-9----------|
|--2------2-----7------7------7----9-9----------|
|--0------X-----5------4------5----7-7----------|
  On the bus I am lookin' forward



|---0-------------0----------------0------------------0------------------|
|---0-------------0----------------0------------------0------------------|
|---6-------------6----------------6------------------6------------------|
|---6-------------7----------------6------------------7------------------|
|---4-------------7----------------4------------------7------------------|
|---X-------------5----------------X------------------5------------------|
  And it really ain't okay        ...   I might die 'fore Monday


|----0------------------------X-----------------------X--------------------|
|----0------------------------X-----------------------X--------------------|
|----6------------------------8-----------------------11-(9 for voice)-----|
|----6------------------------8-----------------------11-------------------|
|----4------------------------6-----------------------9--------------------|
|----X------------------------X-----------------------X--------------------|
    They're all              watching                 us



|---0-------------0----------------0---------------0--------------------|
|---0-------------0----------------0---------------0--------------------|
|---6-------------0----------------6---------------0--------------------|
|---7-------------2----------------7---------------2--------------------|
|---7-------------2----------------7---------------2--------------------|
|---5-------------0----------------5---------------0--------------------|
   Kiss me on the bus              Kiss me on the bus



|---X---------------X----------------X----------------X----------------|
|---X---------------X----------------X----------------X----------------|
|---X---------------X----------------X----------------X----------------|
|---7---------------5----------------7----------------5----------------|
|---7---------------5----------------7----------------5----------------|
|---5---------------3----------------5----------------3----------------|
   Ooh if you knew how I felt now    You wouldn't act so adult now


|---X-------------X-----------X------------------------------------|
|---X-------------X-----------X------------------------------------|
|---X-------------X-----------X------------------------------------|
|---7-------------5-----------9------------------------------------|
|---7-------------5-----------9------------------------------------|
|---5-------------3-----------7------------------------------------|
  Hurry, hurry, here comes my stop



|--0------0-----0------0------0----X-X----------|
|--0------0-----0------0------0----X-X----------|
|--1------4-----6------6------6----X-X----------|
|--2------4-----7------7------7----9-9----------|
|--2------2-----7------7------7----9-9----------|
|--0------X-----5------4------5----7-7----------|
  On the bus, watch    our   reflection

|--0------0-----0------0------0----X-X----------|
|--0------0-----0------0------0----X-X----------|
|--1------4-----6------6------6----X-X----------|
|--2------4-----7------7------7----9-9----------|
|--2------2-----7------7------7----9-9----------|
|--0------X-----5------4------5----7-7----------|
  On the bus,   I    can't stand no rejection



|---0-------------0----------------0------------------0------------------|
|---0-------------0----------------0------------------0------------------|
|---6-------------6----------------6------------------6------------------|
|---6-------------7----------------6------------------7------------------|
|---4-------------7----------------4------------------7------------------|
|---X-------------5----------------X------------------5------------------|
  C'mon let's make a scene        Ooh baby don't be so mean

|----0------------------------X-----------------------X--------------------|
|----0------------------------X-----------------------X--------------------|
|----6------------------------8-----------------------11-(9 for voice)-----|
|----6------------------------8-----------------------11-------------------|
|----4------------------------6-----------------------9--------------------|
|----X------------------------X-----------------------X--------------------|
    They're all              watching                 us



|---0-------------0----------------0---------------0--------------------|
|---0-------------0----------------0---------------0--------------------|
|---6-------------0----------------6---------------0--------------------|
|---7-------------2----------------7---------------2--------------------|
|---7-------------2----------------7---------------2--------------------|
|---5-------------0----------------5---------------0--------------------|
   Kiss me on the bus              Kiss me on the bus



|---X---------------X----------------X----------------X----------------|
|---X---------------X----------------X----------------X----------------|
|---X---------------X----------------X----------------X----------------|
|---7---------------5----------------7----------------5----------------|
|---7---------------5----------------7----------------5----------------|
|---5---------------3----------------5----------------3----------------|
   Ooh if you knew how I felt now    You wouldn't act so adult now

|---X-------------X-----------X------------------------------------|
|---X-------------X-----------X------------------------------------|
|---X-------------X-----------X------------------------------------|
|---7-------------5-----------9------------------------------------|
|---7-------------5-----------9------------------------------------|
|---5-------------3-----------7------------------------------------|
  Hurry, hurry, here comes my stop




INSTRUMENTAL 



|---X---------------X----------------X----------------X----------------|
|---X---------------X----------------X----------------X----------------|
|---X---------------X----------------X----------------X----------------|
|---7---------------5----------------7----------------5----------------|
|---7---------------5----------------7----------------5----------------|
|---5---------------3----------------5----------------3----------------|
   Ooh if you knew how I felt now    You wouldn't act so adult now

|---X-------------X-----------X------------------------------------|
|---X-------------X-----------X------------------------------------|
|---X-------------X-----------X------------------------------------|
|---7-------------5-----------9------------------------------------|
|---7-------------5-----------9------------------------------------|
|---5-------------3-----------7------------------------------------|
  Hurry, hurry, here comes my stop



|---0-------------0----------------0---------------0--------------------|
|---0-------------0----------------0---------------0--------------------|
|---6-------------0----------------6---------------0--------------------|
|---7-------------2----------------7---------------2--------------------|
|---7-------------2----------------7---------------2--------------------|
|---5-------------0----------------5---------------0--------------------|
   Kiss me on the bus              Kiss me on the bus



|---0-------------0-----|
|---0-------------0-----|
|---6-------------0-----|
|---7-------------2-----|
|---7-------------2-----|
|---5-------------0-----|
  Kiss me on the bus


Tabbed by Alexandre Maheu, helped by Jonathan Beaulieu
Suggest correction
What's this?
You can suggest a correction to this tab. Community and Mods will review your correction and vote to approve or reject it.
comments
We did not receive enough feedback on this tab! Please rate:
print report bad tab
1 2 3 4 5
1 comment total.
0 reply
somewhat_here 904 wrote on August 13 2007, 07:33 pm

"they're all watching us" ends with the e5 not f#5. good tab though

guest
You may want to rate the tab now too:
select rating
Please do not post tabs as comments. Select "correction" instead!