Oops, an error
Loading. Please wait.

Left Of The Dial Tab

version 1
version 1

Whole song

14,261 views 3 this week
no commentswrite comment
1 2 3 4 5
2 more votes to show rating
add to favorites
launch autoscroll
font size
0
reset
how to read this tab
guitar tuner
Autoscroll
slow
fast
+/-
esc
set tempo
stop
Help us to improve Ultimate-Guitar.com Take our survey!
×
Author
-------------------------------------------------------------------------------
                             Left of the Dial - The Replacements
-------------------------------------------------------------------------------
Tabbed by:Russ
Email:Utahdude1999@aol.com

Tuning: E A D G B E

Intro

Guitar I
e|5555-4-0-00000-5555-4-000000-5555-4-000000-5555-4-000000-------------------|
B|5555-5-5-55555-5555-5-555555-5555-5-555555-5555-5-555555-------------------|
G|-------6-66666--------666666--------666666--------666666-------------------|
D|---------------------------------------------------------------------------|
A|---------------------------------------------------------------------------|
E|---------------------------------------------------------------------------|
Guitar II
e|---------------------------------------------------------------------------|
B|---------------------------------------------------------------------------|
G|--------------22~--------22~-22222222----------22222222--------------------|
D|--------------22~--------22~-2222222244444444--2222222244444444------------|
A|--------------00~--------00~-0000000044444444--0000000044444444------------|
E|-------------------------------------22222222----------22222222------------|

Verse
Guitar I & II
e|------------------------------------22222222-------22222222----------------|
B|------------------------------------33333333-------33333333----------------|
G|2-----------------2-----------------22222222-------22222222----------------|
D|2--------4--------2--------4--------00000000444-44400000000444-444---------|
A|0--------4--------0--------4----------------444-444--------444-444---------|
E|---------2-----------------2----------------222-222--------222-222---------|
                                           pm xxx         pm xxx                                 

e|------------------------------------22222222-------22222222----------------|
B|------------------------------------33333333-------33333333----------------|
G|2-----------------2-----------------22222222-------22222222----------------|
D|2--------4--------2--------4--------00000000444-44400000000444-444---------|
A|0--------4--------0--------4----------------444-444--------444-444---------|
E|---------2-----------------2----------------222-222--------222-222---------|
                                           pm xxx         pm xxx
Chorus
Guitar I & II
e|2-22-22-22--------------2-22-22-22-----------------------------------------|
B|3-33-33-33--------------3-33-33-33-----------------------------------------|
G|2-22-22-22-222-2--------2-22-22-22-222-2-----------------------------------|
D|0-00-00-00-222-2--------0-00-00-00-222-2-----------------------------------|
A|-----------000-0--0---0------------000-0--0---0----------------------------|
E|-------------------2p0---------------------2p0-----------------------------|
then repeat verse the it goes in to the solo:

Solo
Guitar I
e|---------------------------------------------------------------------------|
B|---------------------------------------------------------------------------|
G|---------------------------------------------------------------------------|
D|4---5----7---9-------------------------------------------------------------|
A|4---5----7---9-------------------------------------------------------------|
E|2---3----5---7-------------------------------------------------------------|
Guitar II
e|---------------------------------------------------------------------------|
B|---------------------------------------------------------------------------|
G|---------------------------------------------------------------------------|
D|---4---5---7---9-----------------------------------------------------------|
A|---------------------------------------------------------------------------|
E|---------------------------------------------------------------------------|


| /  slide up
| \  slide down
| h  hammer-on
| p  pull-off
| ~  vibrato
| +  harmonic
| x  Mute note
===============================================================================
Suggest correction
Give kudos to tab author, rate the tab!
1 2 3 4 5
comments
print report bad tab
guest
You may want to rate the tab now too:
select rating
Wanna post a correction for this tab? Suggest correction