Oops, an error
Loading. Please wait.

Left Of The Dial Tab

version 2
version 2

Whole song

21,428 views 63 this week
no commentswrite comment
1 2 3 4 5
x 9
add to favorites
launch autoscroll
font size
0
reset
how to read this tab
guitar tuner
Autoscroll
slow
fast
+/-
esc
set tempo
stop
Help us to improve Ultimate-Guitar.com Take our survey!
×
Author
Difficulty
intermediate
Band-The Replacements
Song-Left of the Dial
Album-Tim
Writer-Paul Westerberg
Tabbed by S. McNally


Tune guitar to Open A (E-A-E-A-C#-E)
Listen to the song for the strumming pattern


[Intro]

                   A                D
e|-0-0-0---0-0-0---0-0-0---0-0-0----5-5-5---5-5-5---|
B|-8-8-7---8-8-7---8-8-7---8-8-7----8-8-7---8-8-7---|
G|-7-7-7---7-7-7---7-7-7---7-7-7----7-7-7---7-7-7---|
D|-0-0-0---0-0-0---0-0-0---0-0-0----5-5-5---5-5-5---|
A|-0-0-0---0-0-0---0-0-0---0-0-0----5-5-5---5-5-5---|
E|--------------------------------------------------|

   A                                D
e|-0-0-0---0-0-0---0-0-0---0-0-0----5-5-5---5-5-5---|
B|-8-8-7---8-8-7---8-8-7---8-8-7----8-8-7---8-8-7---|
G|-7-7-7---7-7-7---7-7-7---7-7-7----7-7-7---7-7-7---|
D|-0-0-0---0-0-0---0-0-0---0-0-0----5-5-5---5-5-5---|
A|-0-0-0---0-0-0---0-0-0---0-0-0----5-5-5---5-5-5---|
E|--------------------------------------------------|

   B5                E5
e|----------------------------------------------|
B|----------------------------------------------|
G|-2-2-2-2-2-2-2-2---7-7-7-7-7-7-7-7------------|
D|-2-2-2-2-2-2-2-2---7-7-7-7-7-7-7-7------------|
A|-2-2-2-2-2-2-2-2---7-7-7-7-7-7-7-7------------|
E|----------------------------------------------|


[Verse]

   A             F#m     A            F#m
e|-0--------------0------0-------------0-----|
B|-8--------------7------8-------------7-----|
G|-7--------------0------7-------------0-----|
D|-0--------------9------0-------------9-----|
A|-0--------------9------0-------------9-----|
E|-------------------------------------------|
Read about your band,  in some local page

         D                F#5       D                F#5
e|-------5--------------------------5-------------------|
B|-------5--------------------------5-------------------|
G|-------7--------------------------7-------------------|
D|-------5--------------------------5-------------------|
A|-------5-----------------4--------5----------------4--|
E|-------------------------2-------------------------2--|
Didn't mention your name,  didn't mention your name

   A             F#m     A            F#m
e|-0--------------0------0-------------0-----|
B|-8--------------7------8-------------7-----|
G|-7--------------0------7-------------0-----|
D|-0--------------9------0-------------9-----|
A|-0--------------9------0-------------9-----|
E|-------------------------------------------|
Sweet Georgia breezes, safe cool and warm

    D             F#5    D           F#5
e|--5--------------------5---------------|
B|--5--------------------5---------------|
G|--7--------------------7---------------|
D|--5--------------------5---------------|
A|--5---------------4----5------------4--|
E|------------------2-----------------2--|
I headed up north, you headed  north


[Bridge]

e|---------------------------------------------0--|
B|-0--0--0--0---0--0---0---0----0-----0--------3--|
G|-4--5--4--5---4--5---4---4----4\2-0-0--4-2-0-2--|
D|-5--5--5--5---5--5---5---5----5---0-0--------0--|
A|-5--5--5--5---5--5---5---5----5-----0--------0--|
E|------------------------------------5-----------|
On and on and on and on,what side are you on?

e|---------------------------------------------0--|
B|-0--0--0--0---0--0---0---0----0-----0--------3--|
G|-4--5--4--5---4--5---4---4----4\2-0-0--4-2-0-2--|
D|-5--5--5--5---5--5---5---5----5---0-0--------0--|
A|-5--5--5--5---5--5---5---5----5-----0--------0--|
E|------------------------------------5-----------|
On and on and on and on,what side are you on?


[Verse 2]

Weary voice that's laughin', on the radio once
We sounded drunk, never made it on
Passin' through and it's late, the station started to fade
Picked another one up in the very next state


[Bridge]

e|---------------------------------------------0--|
B|-0--0--0--0---0--0---0---0----0-----0--------3--|
G|-4--5--4--5---4--5---4---4----4\2-0-0--4-2-0-2--|
D|-5--5--5--5---5--5---5---5----5---0-0--------0--|
A|-5--5--5--5---5--5---5---5----5-----0--------0--|
E|------------------------------------5-----------|
On and on and on and on,what side are you on?

e|-----------------------------------------|
B|-0--0--0--0---0--0---0-------------------|
G|-4--5--4--5---4--5---4-------------------|
D|-5--5--5--5---5--5---5-------------------|
A|-5--5--5--5---5--5---5--5-5-5-5-2-2-2-2--|
E|------------------------3-3-3-3-0-0-0-0--|
On and on and on and on and....


[Solo]
(chord progression F#5 G5 A5 B5)

e|---------------------------------------|
B|---------------------------------------|
G|---------------------------------------|
D|---------------------------------------|
A|-9---7----------------9--10--12--14----|
E|---------9--9b10r9-7-------------------|

e|----------------------------------------------------|
B|----------------------------------------------------|
G|----------------------------------------------------|
D|----------------------------------------------------|
A|-9-------------9--9b10r9-7--9--9b10r9---------------|
E|----9b10r9--7-------------------------7--9--2b3r0---|


[Break]

   A                                D
e|-0-0-0---0-0-0---0-0-0---0-0-0----5-5-5---5-5-5---|
B|-8-8-7---8-8-7---8-8-7---8-8-7----8-8-7---8-8-7---|
G|-7-7-7---7-7-7---7-7-7---7-7-7----7-7-7---7-7-7---|
D|-0-0-0---0-0-0---0-0-0---0-0-0----5-5-5---5-5-5---|
A|-0-0-0---0-0-0---0-0-0---0-0-0----5-5-5---5-5-5---|
E|--------------------------------------------------|

   A
e|----------------|
B|-0-0-0---0-0-0--|
G|-8-8-7---8-8-7--|
D|-7-7-7---7-7-7--|
A|-0-0-0---0-0-0--|
E|-0-0-0---0-0-0--|


[Verse 3]

Pretty girl keep growin' up, playin' make-up, wearin' guitar
Growin' old in a bar, ya grow old in a bar
Headed out to San Francisco, definitely not L.A.
Didn't mention your name, didn't mention your name


[Outro]

   A                         A                       D
e|---------------------------------------------------0--------------------|
B|-0-------------------------0-----------------------3--------------------|
G|-0-------------------------0-----------------------0--------------------|
D|-0-------------------------0-----------------------5--------------------|
A|-0-------------------------0-----------------------5--------------------|
E|-5-------------------------5--------------------------------------------|
And if i don't see ya there, in a long, long while, I'll try to find you


  Repeat a few times then end on an A
e|-0---0---0---0-----0---0---0-----------|
B|-3---5---0---3-----3---5---0---0-------|
G|-0---0---4---0-----0---0---4---0-------|
D|-------------5-----------------0-------|
A|-------------5-----------------0-------|
E|-------------------------------5-------|
Left of the dial, left of the dial

e|-0---0---0---0-----0---0---0-----------|
B|-3---5---0---3-----3---5---0---0-------|
G|-0---0---4---0-----0---0---4---0-------|
D|-------------5-----------------0-------|
A|-------------5-----------------0-------|
E|-------------------------------5-------|
Left of the dial, left of the dial.....



************************************

| \  Slide down
| r  Release
| b  Bend

************************************
Suggest correction
comments
print report bad tab
guest
You may want to rate the tab now too:
select rating
Wanna post a correction for this tab? Suggest correction