Oops, an error
Loading. Please wait.

Little Mascara Tab

version 1
version 1

Whole song

9,090 views 18 this week
no commentswrite comment
1 2 3 4 5
please rate
add to favorites
launch autoscroll
font size
0
reset
how to read this tab
guitar tuner
Autoscroll
slow
fast
+/-
esc
set tempo
stop
Help us to improve Ultimate-Guitar.com Take our survey!
×
Author

Band: The Replacements
Song: Little Mascara
Album: Tim
Year: 1985

Intro
e||------0---------------||--------------------|
B||--2---0---3-3-2—-0----||----3-2-----3-2---2-|
G||*-2---1---2-2-2—-2-2-*||-------2--------2-2-|
D||*-2---2---0-0-0—-0-0-*||------------------2-|
A||--0---2---------------||------------------0-|
E||------0---------------||--------------------|

Verse
e|-------------------------------------|
B|-----------------2-----------3---3-3-|
G|-4—-2-2---4--2-4-2---4-2-2---2---2-2-|
D|-2—-2-2---2—-2-2-2---2-2-2---0---0-0-|
A|-0—-0-0---0--0-0-0---0-0-0-----------|
E|-------------------------------------|

e|--------------------------------------------|
B|-----------------2--------------------------|
G|-4—-2-2---4--2-4-2---4-4-2-2-4-4-2-2---1-2--|
D|-2—-2-2---2—-2-2-2---0-0-0-0-0-0-0-0---2-2--|
A|-0—-0-0---0--0-0-0---------------------2-0--|
E|---------------------------------------0----|

Pre-Chorus
e|-0-----------2---------------------|
B|-0-----2-----3-----4-----2---------|
G|-1-----2-----2-----4-----2-----4---|
D|-2-----2-----0-----4-----2-----4---|
A|-2-----0-----------2-----0-----2---|
E|-0---------------------------------|

Chorus
e|-----0-------------------0----------------|
B|-2---0---3-3-2—-0----2---0---3-3-2—-0-----|
G|-2---1---2-2-2—-2-2--2---1---2-2-2—-2-2---|
D|-2---2---0-0-0—-0-0--2---2---0-0-0—-0-0---|
A|-0---2---------------0---2----------------|
E|-----0-------------------0----------------|

e|-----0-------------------------------|
B|-2---0---3-3-2—0-----3-2-----3-2---2-|
G|-2---1---2-2-2—2-2-------2-------2-2-|
D|-2---2---0-0-0—0-0-----------------2-|
A|-0---2-----------------------------0-|
E|-----0-------------------------------|

Bridge

(Note: This isn’t exactly what’s played on the record;
It’s a composite arrangement of  the  chords and
The vocal melody.)

e|-------------------------------------|
B|-3-3-3-----------3-3-3-----------3-3-|
G|-----0---0---2-------0---0---2-------|
D|-----0---0---0-------2---2---2-------|
A|-----x---x---x-------3---3---3-------|
E|-----3---3---3-----------------------|

e|-----------------------------|
B|-3-----------3-3---1---0---1-|
G|-0---0---2-----0---0---0---0-|
D|-0---0---0-----2---2---2---2-|
A|-x---x---x-----3---3---3---3-|
E|-3---3---3-------------------|

Outro

(Note: Like the bridge, this is a composite
arrangement. It’s also interesting to note
that this is the  exact same thing as
the bridge, only played a whole step higher.)

e|-------------------------------------|
B|-5-5-5-----------5-5-5-----------5-5-|
G|-----2---2---4-------2---2---4-------|
D|-----2---2---2-------0---0---0-------|
A|-----0---0---0-----------------------|
E|-------------------------------------|

e|---------------------------------|
B|-5-----------5-5---3---2---3-----|
G|-2---2---4-----2---2---2---2-----|
D|-2---2---2-----0---0---0---0-----|
A|-0---0---0-----------------------|
E|---------------------------------|

(Intro)

(verse)
You and I fall together
You and I sleep alone
After all, things might be better
after 1, and there's one that's long gone

(verse)
For the moon you keep shootin'
Throw your rope up in the air
For the kids you stay together
You nap 'em and you slap 'em in a highchair

(pre-chorus)
All you ever wanted was someone to take care of ya
All you're ever losin' is a

(chorus)
little mascara
little mascara
little mascara

(verse)
Afternoon, things are quiet
Settle back now if you can
Stations clip by like a rocket
Don't you worry if you wonder why he ran

(pre-chorus)
All you ever wanted was someone to take care of ya
All you're ever losin' is a

(chorus)
little mascara
little mascara
little mascara

(bridge)
that you cry
that you cry
that you cry
your eyes out

(solo-played over verse)

(pre-chorus)
All you ever wanted was someone Ma'd be scared of
All your ever losin' is

(chorus)
A little mascara
A little mascara
A little mascara

(outro)
that you cry
that you cry
that you cry
your eyes out

(Fade out…)
Suggest correction
Give kudos to tab author, rate the tab!
1 2 3 4 5
comments
print report bad tab
guest
You may want to rate the tab now too:
select rating
Please do not post tabs as comments. Select "correction" instead!