Oops, an error
Loading. Please wait.

Takin A Ride Bass Tab

1,479 views 18 this week
no commentswrite comment
1 2 3 4 5
accurate
x 3
add to favorites
launch autoscroll
font size
0
reset
guitar tuner
Autoscroll
slow
fast
+/-
esc
set tempo
stop
Help us to improve Ultimate-Guitar.com Take our survey!
×
Author
Difficulty
-------------------------------------------------------------------------------
			     Takin' A Ride - The Replacements
-------------------------------------------------------------------------------

Tabbed By : BassistBentley
e-mail: bentley.max@gmail.com

Tuning: G-D-A-E

G|---------------------------------------------------------------------------|
D|---------------------------------------------------------------------------|
A|----2-2-2-2-2-2-2-2-2-2-2-2-2-2-2-2-2-2-2-2-2-2-2-2-2-2-2-2-2-2-2-2--------|
E|---------------------------------------------------------------------------|

G|-----------------------------|
D|--0---0----------------------|
A|----0---0--2-2-2-2-2-2-2-2---|
E|-----------------------------| x3

G|-----------------------------|
D|--0---0----2-2-2-2-2-2-2-2---|
A|----0---0--------------------|
E|-----------------------------| 

G|--------------------------------------------|
D|-----------------------------------0---0----|
A|--2-2-2-2-2-2-2-2-2-2-2-2-2-2-2-2----0---0--|
E|--------------------------------------------| x4

variation (3rd time)
G|---------------------------2---4-------------|
D|-------------------2---4------------0---0----|
A|--2-2-2-2-2-2-2-2---------------------0---0--|
E|---------------------------------------------|

G|--------------------------------------5-5-5-5-5-5-5-5-5-5--2-2-2-2-2-2-2-2-----|
D|--2-2-2-2-2-2-2-2--5-5-5-5-5-5-5-5-5-------------------------------------------|
A|-------------------------------------------------------------------------------|
E|-------------------------------------------------------------------------------|

G|-----------------------------|
D|--0---0----------------------|
A|----0---0--2-2-2-2-2-2-2-2---|
E|-----------------------------| x3

G|-----------4-4-4-4-4-4-4-4---|
D|--0---0----------------------|
A|----0---0--------------------|
E|-----------------------------| 

G|----2-2-2-2-2-2-2-2-1-1-1-1-1-1-1-1----|
D|---------------------------------------|
A|---------------------------------------|
E|---------------------------------------|

G|--------------------------------------------|
D|-----------------------------------0---0----|
A|--2-2-2-2-2-2-2-2-2-2-2-2-2-2-2-2----0---0--|
E|--------------------------------------------| x4

G|--------------------------------------5-5-5-5-5-5-5-5-5-5--2-2-2-2-2-2-2-2-----|
D|--2-2-2-2-2-2-2-2--5-5-5-5-5-5-5-5-5-------------------------------------------|
A|-------------------------------------------------------------------------------|
E|-------------------------------------------------------------------------------|

G|-----------------------------|
D|--0---0----------------------|
A|----0---0--2-2-2-2-2-2-2-2---|
E|-----------------------------| x4

G|----------------------------------|
D|--2-2-2-2-2-2-2-2-2-2-2-2-2-2-2-2-|
A|----------------------------------|
E|----------------------------------|

G|----------------------------------|
D|----------------------------------|
A|2-2-2-2-2-2-2-2-------------------|
E|----------------2-2-2-2-2-2-2-2-2-|

G|----------------------------------|
D|----------------------------------|
A|-----------------2-2-2-2-2-2-2-2-2|
E|-0-0-0-0-0-0-0-0------------------|

G|-------------------------------------|
D|-------------------------------------|
A|-------------------------------------|
E|--2-2-2-2-2-2-2-2-2--0-0-0-0-0-0-0-0-|

G|----------------------------------|
D|----------------------------------|
A|--2-2-2-2-2-2-2-2-2-2-2-2-2-2-2-2-|
E|----------------------------------|

G|--------------------------------------------|
D|-----------------------------------0---0----|
A|--2-2-2-2-2-2-2-2-2-2-2-2-2-2-2-2----0---0--|
E|--------------------------------------------| x4

variation (3rd time)
G|---------------------------2---4-------------|
D|-------------------2---4------------0---0----|
A|--2-2-2-2-2-2-2-2---------------------0---0--|
E|---------------------------------------------|

G|--------------------------------------5-5-5-5-5-5-5-5-5-5--2-2-2-2-2-2-2-2-----|
D|--2-2-2-2-2-2-2-2--5-5-5-5-5-5-5-5-5-------------------------------------------|
A|-------------------------------------------------------------------------------|
E|-------------------------------------------------------------------------------|

G|-----------------------------|
D|--0---0----------------------|
A|----0---0--2-2-2-2-2-2-2-2---|
E|-----------------------------| x3

G|--------------------2---4----|
D|--0---0-----2---4------------|
A|----0---0--------------------|
E|-----------------------------|
Suggest correction
Give kudos to tab author, rate the tab!
1 2 3 4 5
comments
print report bad tab
guest
You may want to rate the tab now too:
select rating
Please do not post tabs as comments. Select "correction" instead!