Oops, an error
Loading. Please wait.

The Ledge Tab

2,232 views 1 this week
no commentswrite comment
1 2 3 4 5
please rate
add to favorites
launch autoscroll
font size
0
reset
how to read this tab
guitar tuner
Autoscroll
slow
fast
+/-
esc
set tempo
stop
Help us to improve Ultimate-Guitar.com Take our survey!
×
-------------------------------------------------------
                   THE LEDGE - The Replacements
-------------------------------------------------------
Tabbed by:the.insomniac247

Tuning: Standard

Rhythm (Paul Westerberg)

Part 1 (0:00-0:36)

e|-----------------------------------------|
B|----------------------------0------------|   X 2
G|----------------------0-------0----------|
D|------2-----2---2---2-----2-----2--------|
A|----2-----2---2---3-----3----------------|
E|--0-----0--------------------------------|

THEN

e|-----------------------------------------|
B|-----------------------------------------|   X 10
G|----------------------0-----0---0--------|
D|------2-----2---2---2-----2---2----------|
A|----2-----2---2---3-----3----------------|
E|--0-----0--------------------------------|

[Progression may vary slightly when verse begins]

Part 2 (0:37-0:49)

e|--0----0-0---0-0---0-0-0----0-0---0-0---0-0---|
B|--0--3-----3-----3-----3--3-----3-----3-------|
G|--0--------------------2----------------------|
D|--3--------------------0----------------------|
A|--2--------------------0----------------------|
E|----------------------------------------------|

e|--0----0-0---0-0---0-0-0-0--0-0--0-0-------|
B|--0--0-----0-----0-----0-0--0-0--0-0-------|
G|--0--------------------2-2--2-2--2-2-------|
D|--2--------------------1-1--1-1--1-1-------|
A|--3----------------------------------------|
E|-------------------------------------------|

Part 3 (0:50-1:18)

e|-----------------------------------------|
B|-----------------------------------------|   X 10
G|----------------------0-----0---0--------|
D|------2-----2---2---2-----2---2----------|
A|----2-----2---2---3-----3----------------|
E|--0-----0--------------------------------|

Part 4 (1:19-1:41)

e|--0----0-0---0-0---0-0-0----0-0---0-0---0-0---|
B|--0--3-----3-----3-----3--3-----3-----3-------|
G|--0--------------------2----------------------|
D|--3--------------------0----------------------|
A|--2--------------------0----------------------|
E|----------------------------------------------|

e|---0-0---0-0---0-0-0----0-0---0-0---0-0-0---0-0----|
B|-0-----0-----0-----0--3-----3-----3-----3-0-----0--|
G|-------------------0--------------------2----------|
D|-------------------2--------------------0----------|
A|-------------------3--------------------0----------|
E|---------------------------------------------------|

e|-0-0---0-0--0----0-0---0-0---0-0-0-0--0-0--0-0---|
B|-----0------0--0-----0-----0-----0-0--0-0--0-0---|
G|------------0--------------------2-2--2-2--2-2---|
D|------------2--------------------1-1--1-1--1-1---|
A|------------3------------------------------------|
E|-------------------------------------------------|

Part 5 (1:42-1:47)

e|------12+---------7+----12+--------|
B|--7+--------12+------7+-----12+----|
G|----------------7+-----------------|
D|-----------------------------------|
A|-----------------------------------|
E|-----------------------------------|

Part 6 (1:48-2:00)
REPEAT Part 3

Part 7 (2:01-2:13)
REPEAT Part 2

Part 8 (2:14-2:43)
REPEAT Part 3

Part 9 (2:44-3:07)

e|--0----0-0---0-0---0-0-0----0-0---0-0---0-0---|
B|--0--3-----3-----3-----3--3-----3-----3-------|
G|--0--------------------2----------------------|
D|--3--------------------0----------------------|
A|--2--------------------0----------------------|
E|----------------------------------------------|

e|-0----0-0---0-0---0-0-0----0-0---0-0---0-0---|
B|-0--3-----3-----3-----3--3-----3-----3-------|
G|-0--------------------2----------------------|
D|-3--------------------0----------------------|
A|-2--------------------0----------------------|
E|---------------------------------------------|

e|-0----0-0---0-0---0-0-0----0-0---0-0---0-0---|
B|-0--3-----3-----3-----3--3-----3-----3-------|
G|-0--------------------2----------------------|
D|-3--------------------0----------------------|
A|-2--------------------0----------------------|
E|---------------------------------------------|

e|--0----0-0---0-0---0-0-0-0--0-0--0-0-------|
B|--0--0-----0-----0-----0-0--0-0--0-0-------|
G|--0--------------------2-2--2-2--2-2-------|
D|--2--------------------1-1--1-1--1-1-------|
A|--3----------------------------------------|
E|-------------------------------------------|

Part 10 (3:08-3:32)
REPEAT Part 3

Part 11 (3:33-END)

e|-------------------|
B|-------------------|
G|--0-0--x-x---0-----|
D|--2-2--x-x---2-----|
A|--2-2--x-x---3-----|
E|--0-0--x-x---0-----|

***********************************************************************************

Lead (Slim Dunlap)

Riff 1 (0:00-0:09) ~INTRO

e|-------------------|
B|--8b-7-------------|
G|----------9-7h9----|
D|-------------------|
A|-------------------|
E|-------------------|

Riff 2 (0:50-0:52) ~VERSE

e|----------------|
B|-----7--9-------|
G|--9-------------|
D|----------------|
A|----------------|
E|----------------|

Riff 3 (0:59-1:01) ~VERSRE

e|----------------|
B|--8p7-----------|
G|-------9-7/9----|
D|----------------|
A|----------------|
E|----------------|

Riff 4 (1:05-1:06) ~VERSE

e|-------------|
B|----7/8------|
G|-------------|
D|-------------|
A|-------------|
E|-------------|

Solo 1 (1:47-2:18)

e|----------------------------------------------------------------------|
B|--------------------------------------8-8b-8-8/12-12----0-------------|
G|--2/9-7---7---------------7----7h9-7h9-9------------7h9-9-----------7-|
D|--------9------5-7-7----5--7/9--------------------------0--9-7-9-9-7--|
A|-------------7--------7-----------------------------------------------|
E|----------------------------------------------------------------------|

e|--------------------------------------7h10p7-7h10p7-7h10p7-7h10p7-|
B|------------------------------------------------------------------|
G|-------------7--------------9--7--9-------------------------------|
D|-0-9-7-9-9-7---9-7-9-7--9-9b -------------------------------------|
A|------------------------------------------------------------------|
E|------------------------------------------------------------------|

e|-7h10p7-7h10p7-7h10p7-7h10p7-7h10p7-7h10p7-7h10p7-7h10p7-7h10p7-|
B|----------------------------------------------------------------|
G|----------------------------------------------------------------|
D|----------------------------------------------------------------|
A|----------------------------------------------------------------|
E|----------------------------------------------------------------|

e|-7h10/12/10/7-10/12~~12----12--10------------------------|
B|----------------------------------12--11-10--------------|
G|---------------------------------------------12--9-------|
D|---------------------------------------------------------|
A|---------------------------------------------------------|
E|---------------------------------------------------------|

Riff 6 (2:20-2:32) ~VERSE

e|--------------------------------------------------------|
B|--------------------------------------------------------|
G|--------------------------------------------------------|
D|--7/9--7h9-9------7h9-9/12--------------7/9/12/14-------|
A|--------------------------------------------------------|
E|--------------------------------------------------------|

Riff 7 (2:35-2:43) ~VERSE

e|----------------------------------------------|
B|----------------------------------------------|
G|-----------7/9----------------5/12---10b------|
D|--9p7/5---------9-7--------7------------------|
A|--------7----------9-7-7-9--------------------|
E|----------------------------------------------|


Riff 8 (2:43-3:04) ~CHORUS

e|------------------------------------------------------------|
B|--------10--12-------12p10--------10--12--------12p10-------|
G|--9--12--------9--12--------9--12---------9--12-------------|
D|------------------------------------------------------------|
A|------------------------------------------------------------|
E|------------------------------------------------------------|

e|----------------------------|
B|----------------------------|
G|--------9-7-----------------|
D|------------9-7/5-7-5/14----|
A|----------------------------|
E|----------------------------|

Solo 2 (3:14-3:34)

e|--------------------------------------------------------|
B|---------------------------------------------------7/12-|
G|--11-9-11-9-11-9-11-9-11-9-14p12/11/9h11-9/7---7h9------|
D|--------------------------------------------9-0---------|
A|--------------------------------------------------------|
E|--------------------------------------------------------|

e|---------------------------------10-12-10----------7/12-10/7/10-12--|
B|-12-10h12p10/8h12-12b/10b/8b--12----------12-10-12------------------|
G|--------------------------------------------------------------------|
D|--------------------------------------------------------------------|
A|--------------------------------------------------------------------|
E|--------------------------------------------------------------------|

e|-12p10--------10-10-12p10-7---7b/12-12/19b/--------|
B|-------h12p10--------0--0-0------------------------|
G|---------------------------------------------------|
D|---------------------------------------------------|
A|---------------------------------------------------|
E|---------------------------------------------------|

Part 9 (3:36-3:47)

e|-14--14--xx-12----|
B|---------xx-------|   X5
G|-12--12--xx-12----|
D|------------------|
A|------------------|
E|------------------|

Part 10 (3:48 - END)

e|--------------|
B|--------------|       X4
G|--------------|
D|--------------|
A|--------------|
E|--2b-2b-0-----|



************************************

| /   slide
| h   hammer-on
| p   pull-off
| ~   vibrato
| +   harmonic
| x   Mute note

************************************
Suggest correction
Give kudos to tab author, rate the tab!
1 2 3 4 5
comments
print report bad tab
guest
You may want to rate the tab now too:
select rating
Wanna post a correction for this tab? Suggest correction