Oops, an error
Loading. Please wait.

Tommy Gets His Tonsils Out bass

109 views 3 this week
no commentswrite comment
1 2 3 4 5
2 more votes to show rating
add to favorites
×
Save as Personal and add changes to this tab that will be seen only by you. Learn more ›
×
You can save this tab as Personal to edit and correct it or add notes. All changes will be seen only by you. Learn more »
launch autoscroll
font size
0
reset
guitar tuner
edit
Autoscroll
slow
fast
+/-
esc
set tempo
stop
Intro
G|---------------|---------------|---------------|---------------|
D|-2-2-2-2-------|-2-2-2-2-------|-2-2-2-2-------|-2-2-2-2-------|
A|---------2--4--|---------4--2--|---------2--4--|---------4--2--|
E|---------------|---------------|---------------|---------------|


Verse ("Open Wide, The Doctor's Here...")
G|--------------------------------|--------------------------------|
D|-2-2-2-2---------2-2-2-2--------|-2-2-2-2---------2-2-2-2--------|
A|---------2-2--4----------4-4--2-|---------2-2--4----------4-4--2-|
E|--------------------------------|--------------------------------|

G|--------------------------------|--------------------------------|
D|-2-2-2-2---------2-2-2-2--------|-2-2-2-2---------2-2-2-2--------|
A|---------2-2--4----------4-4--2-|---------2-2--4----------4-4--2-|
E|--------------------------------|--------------------------------|


PreChorus ("Get This Over, Well I Tee Off In An Hour...")
G|-----------------------------------|--------------------------------------|
D|---------------------------2-2-2-2-|-------------------16-15-13--16-15-13-|
A|-2-2-2-2--4-4-4-4--2-2-2-2---------|-2-2-2-2--4-4-4-4---------------------|
E|-----------------------------------|--------------------------------------|

G|-----------------------------------|------------------|
D|---------------------------2-2-2-2-|------------------|
A|-2-2-2-2--4-4-4-4--2-2-2-2---------|-2-2-2-2--4-4-4-4-|
E|-----------------------------------|------------------|


Chorus ("Rip Rip At A Quarter Of A Mile Now...")
G|--------------------------------|--------------------------------|
D|-2-2-2------------2-2-2---------|-2-2-2------------2-2-2---------|
A|-------2-2--4--2--------2-2--4--|-------2-2--4--2--------2-2--4--|
E|--------------------------------|--------------------------------|


Verse ("Open Wide, Ya Little Snot...")
G|--------------------------------|--------------------------------|
D|-2-2-2-2---------2-2-2-2--------|-2-2-2-2---------2-2-2-2--------|
A|---------2-2--4----------4-4--2-|---------2-2--4----------4-4--2-|
E|--------------------------------|--------------------------------|

G|--------------------------------|--------------------------------|
D|-2-2-2-2---------2-2-2-2--------|-2-2-2-2---------2-2-2-2--------|
A|---------2-2--4----------4-4--2-|---------2-2--4----------4-4--2-|
E|--------------------------------|--------------------------------|


PreChorus ("Let's Get This Over, Well I Tee Off In An Hour...")
G|-----------------------------------|--------------------------------------|
D|---------------------------2-2-2-2-|-------------------16-15-13--16-15-13-|
A|-2-2-2-2--4-4-4-4--2-2-2-2---------|-2-2-2-2--4-4-4-4---------------------|
E|-----------------------------------|--------------------------------------|

G|-----------------------------------|------------------|
D|---------------------------2-2-2-2-|------------------|
A|-2-2-2-2--4-4-4-4--2-2-2-2---------|-2-2-2-2--4-4-4-4-|
E|-----------------------------------|------------------|


Bridge
G|----------------------------------|---------------------------------|
D|---------2-2-2-2------------------|---------2-2-2-2-----------------|
A|-----------------2-2-2-2--0-0-0-0-|-----------------2-2-2-2-2-2-2-2-|
E|-4-4-4-4--------------------------|-4-4-4-4-------------------------|


Chorus ("Rip Rip At A Quarter Of A Mile Now...")
G|--------------------------------|--------------------------------|
D|-2-2-2------------2-2-2---------|-2-2-2------------2-2-2---------|
A|-------2-2--4--2--------2-2--4--|-------2-2--4--2--------2-2--4--|
E|--------------------------------|--------------------------------|

Outro
G|-------------------|-------------------|-------------------|-------------------|
D|-----------2-2-----|-----------2-2-----|-----------2-2-----|-----------2-2-----|
A|-2-2--0-4------0-4-|-2-2--0-4------0-4-|-2-2--0-4------0-4-|-2-2--0-4------0-4-|
E|-------------------|-------------------|-------------------|-------------------|

G|-------------------|-------------------|
D|-----------2-2-----|-----------2-2-----|
A|-2-2--0-4------0-4-|-2-2--0-4------0-4-|
E|-------------------|-------------------|


That's The Whole Tune, In Order. Lot's A Fun To Play

            
            
Suggest correction
Creating personal tab
Creating personal tab
You can edit any tab online and save it as your Personal.

You can edit, replace or remove any tab part or add personal notes – all changes will be seen only by you.

Personal tabs can be accessed anytime from any device, even offline.
Learn more »
Give kudos to tab author, rate the tab!
1 2 3 4 5
comments
print report bad tab
guest
You may want to rate the tab now too:
select rating
Wanna post a correction for this tab? Suggest correction