Oops, an error
Loading. Please wait.

Unsatisfied Tab

42,208 views 42 this week
3 commentsread comments
1 2 3 4 5
x 22
add to favorites
×
Save as Personal and add changes to this tab that will be seen only by you. Learn more ›
launch autoscroll
font size
0
reset
how to read this tab
guitar tuner
Autoscroll
slow
fast
+/-
esc
set tempo
stop
Fsus2              C/B               G                 Fsus2
e|--3-3-------3-----|--3-3------3-----|--3-3------3-----|--3-3-------3-----|
B|--1---1-------1---|--1---1------1---|--0---0------0---|--1---1-------1---|
G|--0-----0-------0-|--0-----0------0-|--0-----0------0-|--0-----0-------0-|
D|--3-------3-------|--2-------2------|--0--------------|--3-------3-------|
A|------------------|-----------------|--2--------------|------------------|
E|------------------|-----------------|--3-------0------|------------------|

   Fsus2              C/B               D7               D7
e|--3-3-------3-----|--3-3------3-----|--2-2-----------|--2-2-------------|
B|--1---1-------1---|--1---1------1---|--1---1---3-1---|--1---1---3-1-----|
G|--0-----0-------0-|--0-----0------0-|--2-----2-----2-|--2-----2-----2---|
D|--3-------3-------|--2-------2------|--0-------------|--0-------------0-|
A|------------------|-----------------|----------------|------------------|
E|------------------|-----------------|----------------|------------------|

   F                  F                  G7
e|--1-1-------------|--1-1-------------|--1-1-----0-----|
B|--1---1---3-1-----|--1---1---3-1-----|--0---0-----0---|
G|--2-----2-----2---|--2-----2-----2---|--0-----0-----0-|
D|--3-------------3-|--3-------------3-|--0-------------|
A|------------------|------------------|--2-------------|
E|------------------|------------------|--3-------------|

   F                  G7               F
e|--1-1-------------|--1-1-----0-----|--1-1-------------|
B|--1---1---3-1-----|--0---0-----0---|--1---1---3-1-----|
G|--2-----2-----2---|--0-----0-----0-|--2-----2-----2---|
D|--3-------------3-|--0-------------|--3-------------3-|
A|------------------|--2-------------|------------------|
E|------------------|--3-------------|------------------|

  Dm          Em         F           G            A
e|---1----------0------------1--------3------------0-|
B|-----3----------0------------1------0-0--0-0-0---2-|
G|-------2----------0------------2----0-0--0-0-0---2-|
D|--0----------------------3----------0-0--0-0-0---2-|
A|------------------------------------2------------0-|
E|-------------0----------------------3--------------|
Suggest correction
comments
print report bad tab
3 comments total.
0 reply
12thFretTag 72 Mar 11, 2006 10:15 AM

Very nice tab.

Good job.

0 reply
martinpecial 10 Dec 31, 2008 10:14 AM

Excellent tab to a brilliant song.

0 reply
ddcampayo 53 Nov 29, 2015 12:07 PM

Excellente tab. I'm pretty sure the bridge ("everything goes...") follows Am - C- D, twice, then falls back to the main sequence

guest
You may want to rate the tab now too:
select rating
Wanna post a correction for this tab? Suggest correction