Oops, an error
Loading. Please wait.

Tak Tak Bass Tab

843 views 1 this week
no commentswrite comment
1 2 3 4 5
please rate
add to favorites
launch autoscroll
font size
0
reset
guitar tuner
Autoscroll
slow
fast
+/-
esc
set tempo
stop
Help us to improve Ultimate-Guitar.com Take our survey!
×
Author
Difficulty
novice
Intro
E|5--1--0--3|
A|----------|
D|----------|
G|----------|

Bridge
E|1-1-1----3-3-3----1-1-1----0-0-0|
A|--------------------------------|
D|--------------------------------|
G|--------------------------------|

Chorus 1
E|5--5-5---1--1-1---0--0-0---3--3-3|
A|---------------------------------|
D|---------------------------------|
G|---------------------------------|

Chorus 2
E|5--5-5---1--1-1---0--0-0---3--3-3--0-0-0-0-0-0-3-3-3-3-3-3|
A|----------------------------------------------------------|
D|----------------------------------------------------------|
G|----------------------------------------------------------|


Full Song
Intro x4
Bridge x1
Chorus 1 x4
Bridge x2
Chorus 2 x2
Intro x4
Bridge x1
Chorus 2 x2
Solo (Chorus 2 x3)
Bridge x2
Chorus 2 x2
-Nothing-
Chorus 2 x2
Bridge x2
Suggest correction
Give kudos to tab author, rate the tab!
1 2 3 4 5
comments
print report bad tab
guest
You may want to rate the tab now too:
select rating
Wanna post a correction for this tab? Suggest correction