Oops, an error
Loading. Please wait.

Atrapado tab

by Rescate
50 views 1 this week
no commentswrite comment
1 2 3 4 5
3 more votes to show rating
add to favorites
×
Save as Personal and add changes to this tab that will be seen only by you. Learn more ›
×
You can save this tab as Personal to edit and correct it or add notes. All changes will be seen only by you. Learn more »
launch autoscroll
font size
0
reset
how to read this tab
guitar tuner
edit
Autoscroll
slow
fast
+/-
esc
set tempo
stop
1er Verso:
Em                 G            Am             D
Ella lo miró, atrapado va, atrapado va, atrapado está.
Em                 G            Am             D
Ella lo besó con ingenuidad, atrapado está, atrapado va.
     Em        G
oh oh oh
          e)|-0-2-3-4-4---0-2-3-4-4------------|
          B)|----------------------------------|
          G)|----------------------------------|
     Am        D
oh oh oh
          e)|-0-2-3-4-4---0-2-3-4-4------------|
          B)|----------------------------------|
          G)|----------------------------------|


2do Verso:

Em               G                    Am            D
Ella lo encontró, no lo va dejar, atrapado está en aquel cristal.
e)|-3-2-0------------------|
B)|------------------------|
G)|------------------------|

Em                 G
Ella le contó la media verdad.
e)|-3-2-0------------------|
B)|------------------------|
G)|------------------------|

      Am               D
que puede contar, atrapado está.

CORO

Em         C        G    D
Ahora no todo lo verás.
e)|-2-3-2------------------|
B)|-------3-5--------------|
G)|------------------------|

Em         C        G    D
Ahora no todo lo creerás.
e)|-2-3-2------------------|
B)|-------3-5--------------|
G)|------------------------|

Em         C       G       D
Ahora transita el desierto.
e)|-2-3-2------------------|
B)|-------3-5--------------|
G)|------------------------|

Em         C      A
Mira ese valle lleno de huesos secos.

3er Verso: (Sigue la misma secuencia del pincipio sin los punteos)

Ella lo besó, atrapado va, atrapado está en aquel cristal.
Nadie lo notó, pero aquel puñal, no logró matar la media verdad.

1er SOLO:

e)|-3-0-3-0-7-3-0---5-2-5-2-10-5-2---|
B)|----------------------------------|
G)|----------------------------------|

e)|-3-0-3-0-7-3-0---3-0-5-2-10-5-2---|
B)|----------------------------------|
G)|----------------------------------|

CORO:
Em         C        G    D
Ahora no todo lo verás.
e)|-2-3-2------------------|
B)|-------3-5--------------|
G)|------------------------|

Em         C        G    D
Ahora no todo lo creerás.
e)|-2-3-2------------------|
B)|-------3-5--------------|
G)|------------------------|

Em         C       G       D
Ahora transita el desierto.
e)|-2-3-2------------------|
B)|-------3-5--------------|
G)|------------------------|

Em        C          G       D    Em
Nadie lo espera en el puerto     Nooooooo   [solo]

SOLO:

    G       Am        D
e)|-2-3-0---0-2-3-0---0-2-3-7-3-7----------|
B)|----------------------------------------|
G)|----------------------------------------|

    Em        G         Am        D
e)|-0-2-3-0---0-2-3-0---0-2-3-0---0-2-3-7-3-7---|
B)|---------------------------------------------|
G)|---------------------------------------------|

CORO:

Ahora no todo lo verás.
Ahora no todo lo creerás.
Ahora transita el desierto.
Mira ese valle lleno de huesos secos.
(pausa)
Ella lo besó.

FINAL:
Em         G      F#       F
Corta la cuerda salta la cerca!!.
Corta la cuerda salta la cerca!!.
Corta la cuerda salta la cerca!!.
Corta la cuerda salta la cerca!!.

Em
Ella lo besó?

            
            
Suggest correction
Creating personal tab
Creating personal tab
You can edit any tab online and save it as your Personal.

You can edit, replace or remove any tab part or add personal notes – all changes will be seen only by you.

Personal tabs can be accessed anytime from any device, even offline.
Learn more »
Give kudos to tab author, rate the tab!
1 2 3 4 5
comments
print report bad tab
guest
Wanna post a correction for this tab? Suggest correction