Oops, an error
Loading. Please wait.

Globos tab

by Rescate
28 views 1 this week
no commentswrite comment
1 2 3 4 5
3 more votes to show rating
add to favorites
×
Save as Personal and add changes to this tab that will be seen only by you. Learn more ›
×
You can save this tab as Personal to edit and correct it or add notes. All changes will be seen only by you. Learn more »
launch autoscroll
font size
0
reset
how to read this tab
guitar tuner
edit
Autoscroll
slow
fast
+/-
esc
set tempo
stop
Cuarto Track del disco: ¡Arriba!

Este Riff se repite en todas las partes donde haya un Am
e) |---------------------------------------|
B) |---------------------------------------|
G) |-----5-----------------5---------------|
D) |-7-7---7--5-5-5-7--7-7---7--5-5-5-7----|
A) |---------------------------------------|
E) |---------------------------------------|

  Am
//El cielo esta lleno
Am
de globos escapados
Am
de cometas
Am
que no tienen dueño//

e) |---------------------------------------|
B) |---------------------------------------|
G) |-----5-----------------5---------------|
D) |-7-7---7--5-5-5-7--7-7---7--5-5-5-7----|
A) |---------------------------------------|
E) |---------------------------------------|

1er Verso:

Am
La tarde esta divina,
Am
jugar con Agustina,
Am
en un descuido,
Am
su globo escapa hacia la China.
Am
Ella lo sigue
Am
Su cara es tan hermosa
Am
Me dice papi
Am
Sabias una cosa...

CORO:
         C
//Que el cielo esta lleno
   D
de globos escapados
F          G
de cometas que no tienen dueño//

Am
Yo quiero ir al cielo hoy

2do Verso:

Am
Corazon de niño,
Am
decia mi maestro,
Am
la mente fresca,
Am
los ojos bien abiertos,
Am
la tierra esta llena,
Am
de grasas saturadas
Am
y de fortunas que no duran nada...

CORO:
         C
//Que el cielo esta lleno
   D
de globos escapados
F          G
de cometas que no tienen dueño//

Am
Yo quiero ir al cielo hoy

SOLO:

e) |-----------------------------------------|
B) |-----------------------------------------|
G) |---5-5----5-7-5----5-5------5--------5---|
D) |-7-----7-7-------7-----7--7---7--5-7---7-|
A) |-----------------------------------------|
E) |-----------------------------------------|

e) |--------------------------------------|
B) |--------------------------------------|
G) |---5-5---5---5-7-5----5-5-------------|
D) |-7-----7---7--------7-----7-5---------|
A) |--------------------------------------|
E) |--------------------------------------|

CORO:
         C
//Que el cielo esta lleno
   D
de globos escapados
F          G
de cometas que no tienen dueño//

 Am
//Yo quiero ir al cielo
hoy//


¡Espero les sirva!
Saludos
Suggest correction
Creating personal tab
Creating personal tab
You can edit any tab online and save it as your Personal.

You can edit, replace or remove any tab part or add personal notes – all changes will be seen only by you.

Personal tabs can be accessed anytime from any device, even offline.
Learn more »
Give kudos to tab author, rate the tab!
1 2 3 4 5
comments
print report bad tab
guest
Wanna post a correction for this tab? Suggest correction