Oops, an error
Loading. Please wait.

Hoy Si tab

by Rescate
41 views 1 this week
no commentswrite comment
1 2 3 4 5
3 more votes to show rating
add to favorites
×
Save as Personal and add changes to this tab that will be seen only by you. Learn more ›
×
You can save this tab as Personal to edit and correct it or add notes. All changes will be seen only by you. Learn more »
launch autoscroll
font size
0
reset
how to read this tab
guitar tuner
edit
Autoscroll
slow
fast
+/-
esc
set tempo
stop
En Distorcion
E|---------------------------------------------------------
B|---------------------------------------------------------
G|---------------------------------------------------------
D|---------------------------------------------------------
A|----4-4-4-4---6-6--5-5-----------------------------------
E|----2-2-2-2---4-4--3-3-----------------------------------

Riff 1
E|---------------------------------------------------------
B|---------------------------------------------------------
G|---------------------------------------------------------
D|---------------------------------------------------------
A|-----------2-/(4)----------------------------------------
E|----2--0-------------------------------------------------

en ese 2 de la 5ta cuerda es un bend de tono entero

FA#
Me descolgué en la mitad del viaje
LA
Velocidad, que no es la rapidez,
FA#
Desdibuje la mueca de coraje,
LA                       LA  SOL# SOL FA#
Parece ser la misma pero hoy no   lo  es

FA#
Cansado de tenerte en este verso,
LA
Disimular con mucha dignidad,
FA#
No quiero mas el cuento de perverzo,
LA                          LA  SOL# SOL FA#  FA# SOL# SOL
Y de la torta quiero ver la o  tra    mi-tad,  mi - tad
Coro

FA#        SOL#   SOL
hoy camino por el puente
FA#        SOL#   SOL
Hoy no vuelvo por alli
FA#        SOL#   SOL   Riff 1
Hoy tu mano suficiente, hoy si, hoy si

Riff 2
E|---------------------------------------------------------
B|---------------------------------------------------------
G|---------------------------------------------------------
D|---------------------------------------------------------
A|-----------4------3-----2--------------------------------
E|----2--5-------5-----5-----------------------------------

FA#
Parece ser, la misma camiseta,
LA
parece ser la misma pero hoy no lo es
FA#
Sera sutil, soy yo quien lo detecta,
LA                       LA  SOL# SOL FA# FA# SOL# SOL
Sera verdad, aunque parezca que no lo es, lo  v - es

Coro
FA#        SOL#   SOL
hoy camino por el puente
FA#        SOL#   SOL
Hoy no vuelvo por alli
FA#        SOL#   SOL   Riff 1
Hoy tu mano suficiente, hoy si, hoy si

Inter
RE             LA           DO#              FA#m
Hoy prefiero este calor, el dolor no es mi cancion,
RE            LA        DO#           FA#m
Hoy no quiero la razon, hoy preciso corazon
RE                LA            DO#              FA#m
Hay hoy una prisa para esperar, hoy la riza no podra llorar
RE           LA       DO   SI  FA#m
Camino del punete voy para no parar?

Riff 3

Riff 1
E|-------------------------------------------------------------------
B|-------------------------------------------------------------------
G|-------------------------------------------------------------------
D|-------------------------------------------------------------------
A|------------------------0--5--5-5-5-5--0--4--4-4-4-4--0--3--3-3-3-3
E|-2--2-2-2-2--5--5-5-5-5--------------------------------------------

FA#        SOL#   SOL
hoy camino por el puente
FA#        SOL#   SOL
Hoy no vuelvo por alli
FA#        SOL#   SOL   Riff 1
Hoy tu mano suficiente, hoy si, hoy si
FA#         SOL#  SOL   FA#           SOL#  SOL
Yo prefiero poca gente, hoy no vuelvo como  fui
FA#         SOL#  SOL
Hoy regreso de la muerte,

hoy si, hoy

Riff 1
E|---------------------------------------------------------
B|---------------------------------------------------------
G|---------------------------------------------------------
D|---------------------------------------------------------
A|-----------2-/(4)----------------------------------------
E|----2--0-------------------------------------------------

Y asi hasta que tu quieras sale pues, Dios te bendiga
Jehova es mi Pastor,

            
            
Suggest correction
Creating personal tab
Creating personal tab
You can edit any tab online and save it as your Personal.

You can edit, replace or remove any tab part or add personal notes – all changes will be seen only by you.

Personal tabs can be accessed anytime from any device, even offline.
Learn more »
Give kudos to tab author, rate the tab!
1 2 3 4 5
comments
print report bad tab
guest
Wanna post a correction for this tab? Suggest correction