Oops, an error
Loading. Please wait.

La Pared bass

by Rescate
35 views 1 this week
no commentswrite comment
1 2 3 4 5
2 more votes to show rating
add to favorites
×
Save as Personal and add changes to this tab that will be seen only by you. Learn more ›
×
You can save this tab as Personal to edit and correct it or add notes. All changes will be seen only by you. Learn more »
launch autoscroll
font size
0
reset
guitar tuner
edit
Autoscroll
slow
fast
+/-
esc
set tempo
stop
Intro
Riff
G|------------------------------|
D|---------------------------2--|  x3
A|--------2-3-2-------2-3-2-----|
E|----0-3-------3-0-3-----------|

G|---------------------------|
D|---------------------------|
A|--------2-3-2-------2-3-2--|
E|----0-3-------3-0-3--------|

  D                     C
 Es muy dura la requisa para el que quiere cruzar.

 Riff

 D                            C
 Digo: ?Brother, tengo visa?, pero eso no bastará.

 Riff

 D                            C
 No es Tecate, no es Tijuana, Matamoros, Gibraltar.

 Riff

 D                          C
 El que vive en la frontera, sabe de que lado está?


   Esta vez, contra la pared. Hoy sabré si cruzar podré.
G|---------------------------------------------------------|
D|-2--0--0-----------------0---2--0--0---------------0--1--|
A|-----------0---2---3---2--------------0--2--3--2---------|
E|---------------------------------------------------------|

G|--------------------------------------|
D|---------------------------2-2-2-2----|
A|-------2-3-2------------2-------------|
E|-0--3----------3--0--3----------------|

 D                         C
 Todo el mar esta delante, todo Egipto por detrás.

 Riff

 D                    C
 Una vara puro power, una nube y un altar.

 Riff

 D                                C
 Chico me dices quiero ser libre, loco como un huracán.

 Riff

 D                            C
 Aprieta los dientes fuertes, porque vamos a saltar!!!.


    Esta vez, contra la pared. Hoy sabré si cruzar podré.
G|---------------------------------------------------------|
D|-2--0--0-----------------0---2--0--0---------------0-----|
A|-----------0---2---3---2--------------0--2--3--2---------|
E|---------------------------------------------------------|

    Otra vez, saltaré sin red. Este mar, se abrirá otra vez.
G|---------------------------------------------------------|
D|-2--0--0-----------------0---2--0--0---------------0--1--|
A|-----------0---2---3---2--------------0--2--3--2---------|
E|---------------------------------------------------------|


G|------------------|
D|---------------2--|
A|-------2-3-2------|
E|-0--3-------------|

Riff
Cuando te bese tierra prometida,
Riff
Cuando te bese, yo nunca te dejaré.
Riff
Será el regreso, será la salida.
Riff
En la cornisa, difícil será correr.

    Esta vez, contra la pared. Hoy sabré si cruzar podré.
G|---------------------------------------------------------|
D|-2--0--0-----------------0---2--0--0---------------0--1--|
A|-----------0---2---3---2--------------0--2--3--2---------|
E|---------------------------------------------------------|

G|------------------|
D|---------------2--| x2
A|-------2-3-2------|
E|-0--3-------------|

G|------------------------------|
D|---------------------------2--|
A|--------2-3-2-------2-3-2-----|
E|----0-3-------3-0-3-----------|

            
            
Suggest correction
Creating personal tab
Creating personal tab
You can edit any tab online and save it as your Personal.

You can edit, replace or remove any tab part or add personal notes – all changes will be seen only by you.

Personal tabs can be accessed anytime from any device, even offline.
Learn more »
Give kudos to tab author, rate the tab!
1 2 3 4 5
comments
print report bad tab
guest
Wanna post a correction for this tab? Suggest correction