Oops, an error
Loading. Please wait.

Mala Memoria tab

version 1
version 1

Whole song

by Rescate
37 views 1 this week
no commentswrite comment
1 2 3 4 5
3 more votes to show rating
add to favorites
×
Save as Personal and add changes to this tab that will be seen only by you. Learn more ›
×
You can save this tab as Personal to edit and correct it or add notes. All changes will be seen only by you. Learn more »
launch autoscroll
font size
0
reset
how to read this tab
guitar tuner
edit
Autoscroll
slow
fast
+/-
esc
set tempo
stop
INTRO:

El comienzo es una punteada facil:

(Riff 1)
E|------------------------------------------------
B|------------------------------------------------
G|------------------------------------------------
D|------------------------------------------------
A|------------------------------------------------
E|---8---6---5---3---3-/-8-/--10---10-/--3--------

La punteada tambien se tok en el coro
escuchen bien la kncion

Coro:
Gm     Cm    D                    Gm
Mala memoria? para recordar tu historia.
Gm     Cm    D                  D     D
Mala memoria? para recordarte. Hey!, hey!.

Gm             G#
Venís a mí con ganas de contarme,
D                  Gm
En dónde fue, con quién y cómo sucedió.
Gm             G#
De recordar el mínimo detalle,
D             Gm
Y castigar de nuevo a quien ya lo pagó.

G#                 Gm      G#              Gm
No sé, de quién me falaz?, No sé, a quién te referís?  ¡NO!
G#                Gm            D     D     D
La culpa duerme en el fondo del mar!, mar!, mar!

(Riff 1)
Gm     Cm    D                    Gm
Mala memoria? para recordar tu historia.
Gm     Cm    D
Mala memoria? para recordarte.
Gm     Cm    D                    Gm
Mala memoria? para recordar tu historia.
Gm     Cm    D                  D     D
Mala memoria? para recordarte. Hey!, hey!.

Luego viene un pequeño solo:
E|------------------------------------------------------
B|---8-8-8-8----9-9-9-9-----9-9-9-9-10-10-11-10-9-7-9---
G|-----------7----------8-------------------------------
D|------------------------------------------------------
A|------------------------------------------------------
E|------------------------------------------------------

E|------------------------------------------------------
B|---8-8-8-8----9-9-9-9-----9-9-9-9-10-10-11-10-9-7-9---
G|-----------7----------8-------------------------------
D|------------------------------------------------------
A|------------------------------------------------------
E|------------------------------------------------------


Gm                G#
Lo del perdón te suena loca historia.
D              Gm
No aceptarás porque poco placer te da.
Gm             G#
No da lugar al que besó la escoria.
D               Gm
No des sabor al guiso que vos cocinas.


G#                 Gm         G#              Gm
No sé, de quién me falaz man? No sé, a quién te referís?¡NO!
G#                Gm            D     D     D
La culpa duerme en el fondo del mar!, mar!, mar!

(Riff 1)
Gm     Cm    D                    Gm
Mala memoria? para recordar tu historia.
Gm     Cm    D
Mala memoria? para recordarte.

Aquí cambia un poco el riff 1

E|-------------------------------------
B|-------------------------------------
G|-------------------------------------
D|-------------------------------------
A|-------------------------------------
E|---8--/--3-/-8-/--10---10-/--3-------

Gm     Cm    D                    Gm
Mala memoria? para recordar tu historia.
Gm     Cm    D                  D     D
Mala memoria? para recordarte. Hey!, hey!.


Aquí se baja un tono completo:
E|---------------------------------------------------
B|---------------------------------------------------
G|---------------------------------------------------
D|---------------------------------------------------
A|---------------------------------------------------
E|---10---8---7---5---5-/-10-/--12---12-/--5---------

  Am              Dm
//Tengo muy mala, tengo muy mala,
E            Am
Mala memoria para recordarte.//

Ahora se toK asi:
E|---------------------------------------------------
B|---------------------------------------------------
G|---------------------------------------------------
D|---------------------------------------------------
A|---------------------------------------------------
E|---10---8---7---5---5-/-10-/--12---12-/--5---------

Am     Dm    E                    Am
Mala memoria? para recordar tu historia.
Am     Dm    E
Mala memoria? para recordarte.
Am     Dm    E                    Am
Mala memoria? para recordar tu historia.
Am     Dm    E                  E     E
Mala memoria? para recordarte. Hey!, hey!.


Termina asi
E|------------------------------
B|------------------------------
G|------------------------------
D|------------------------------
A|------------------------------
E|---10---8---7---5-------------

/ : Mover de un traste a otro sin levantar el dedo

Q Dios los bendiga
y ojala no tengan mala memoria y boten x mi
ja,ja,ja

Comentarios Jonathanmarquez@

            
            
Suggest correction
Creating personal tab
Creating personal tab
You can edit any tab online and save it as your Personal.

You can edit, replace or remove any tab part or add personal notes – all changes will be seen only by you.

Personal tabs can be accessed anytime from any device, even offline.
Learn more »
Give kudos to tab author, rate the tab!
1 2 3 4 5
comments
print report bad tab
guest
Wanna post a correction for this tab? Suggest correction