Oops, an error
Loading. Please wait.

No Me Quedo tab

version 1
version 1

Whole song

by Rescate
32 views 1 this week
no commentswrite comment
1 2 3 4 5
3 more votes to show rating
add to favorites
×
Save as Personal and add changes to this tab that will be seen only by you. Learn more ›
×
You can save this tab as Personal to edit and correct it or add notes. All changes will be seen only by you. Learn more »
launch autoscroll
font size
0
reset
how to read this tab
guitar tuner
edit
Autoscroll
slow
fast
+/-
esc
set tempo
stop
No me quedo.

INTRO

   Em          Am              Em          Am
E)-----------------------------------------------------
B)-----------------------------------------------------
G)-----------------------------------------------------
D)-----------------------------------------------------
A)-----------------------------------------------------
E)-1-1-1--5--7--5-5--7-7----1-1-1--5--7--5-5--7-7------

Em                  Am
Las cartas en la mesa,

Em                  Am
tu juego se abre en mí.

Em                         Am
La libertad, siempre la misma.

   Em          Am              Em          Am
E)-----------------------------------------------------
B)-----------------------------------------------------
G)-----------------------------------------------------
D)-----------------------------------------------------
A)-----------------------------------------------------
E)-1-1-1--5--7--5-5--7-7----1-1-1--5--7--5-5--7-7------

Em                 Am
Será libre albedrío,

Em                  Am
el bien y el mal allí.

Em                        Am
La decisión, ¿siempre la misma?.


          Em          Am              Em          Am
E)-------------------------------------------------------------
B)-------------------------------------------------------------
G)-------------------------------------------------------------
D)-------------------------------------------------------------
A)-------------------------------------------------------------
E)-13->1---1-1-1--5--7--5-5--7-7----1-1-1--5--7--5-5--7-7------
    *

Crorus

G          D     C                   G
Como un extranjero yo me vine a sentir.

G          D     C  C C                         Em
Saber lo que quiero.    ¿O me quedo? ¿O me voy?.

B              E B                   C                      Em
Yo se donde voy. Y si me dan a elegir, yo no me quedo, me voy.


          Em          Am              Em          Am
E)-------------------------------------------------------------
B)-------------------------------------------------------------
G)-------------------------------------------------------------
D)-------------------------------------------------------------
A)-------------------------------------------------------------
E)-13->1---1-1-1--5--7--5-5--7-7----1-1-1--5--7--5-5--7-7------


Am                Em
Hay corazones rotos,

Am                 Em
hay lágrimas al fin.

Am                        Em
Debilidad, siempre la misma.

          Em          Am              Em          Am
E)-------------------------------------------------------------
B)-------------------------------------------------------------
G)-------------------------------------------------------------
D)-------------------------------------------------------------
A)-------------------------------------------------------------
E)-13->1---1-1-1--5--7--5-5--7-7----1-1-1--5--7--5-5--7-7------


Am                Em
Pensé tenerte lejos,

Am                Em
saber que estas aquí.

Am              Am Em             Em
Tu gracia, al fin, siempre la misma.

          Em          Am              Em          Am
E)-------------------------------------------------------------
B)-------------------------------------------------------------
G)-------------------------------------------------------------
D)-------------------------------------------------------------
A)-------------------------------------------------------------
E)-13->1---1-1-1--5--7--5-5--7-7----1-1-1--5--7--5-5--7-7------

Crorus

C                  Am            G             C
Sentir que estás dormido cuando hay que despertar.
C                Am            G          B
Tus manos el abrigo, luz en tanta oscuridad.


Crorus

Em B  Em  B  Em  B  Em                    B
 mm  mmmm   mmmm     yO no me quedo  me voy

B                   C                      Em
Y si me dan a elegir, yo no me quedo, me voy.


EN LA PARTE DE ARRIBA DEL ASTERISCO, SIGNIFICA QUE SE DEBE TOCAR LA CUERDA
SIN LEVANTAR (TODO SEGUIDO , SIN PARAR HASTA, TOCAR LA CUERDA AL AIRE)


Dedicado al amor de mi vida Milagros Bocanegra

            
            
Suggest correction
Creating personal tab
Creating personal tab
You can edit any tab online and save it as your Personal.

You can edit, replace or remove any tab part or add personal notes – all changes will be seen only by you.

Personal tabs can be accessed anytime from any device, even offline.
Learn more »
Give kudos to tab author, rate the tab!
1 2 3 4 5
comments
print report bad tab
guest
Wanna post a correction for this tab? Suggest correction