Oops, an error
Loading. Please wait.

No Me Quedo tab

version 2
version 2

Whole song

by Rescate
9 views 1 this week
no commentswrite comment
1 2 3 4 5
3 more votes to show rating
add to favorites
×
Save as Personal and add changes to this tab that will be seen only by you. Learn more ›
×
You can save this tab as Personal to edit and correct it or add notes. All changes will be seen only by you. Learn more »
launch autoscroll
font size
0
reset
how to read this tab
guitar tuner
edit
Autoscroll
slow
fast
+/-
esc
set tempo
stop
INTRO

   Em          Am
E)---------------------------
B)---------------------------
G)---------------------------
D)---------------------------
A)-------0-1-0-0-0---1-1-----
E)-0-0-2-----------2---------

Em                  Am
Las cartas en la mesa,

Em                  Am
tu juego se abre en mí.

Em                         Am
La libertad, siempre la misma.

   Em          Am
E)---------------------------
B)---------------------------
G)---------------------------
D)---------------------------
A)-------0-1-0-0-0---1-1-----
E)-0-0-2-----------2---------

Em                 Am
Será libre albedrío,

Em                  Am
el bien y el mal allí.

Em                        Am
La decisión, ¿siempre la misma?.

   Em          Am
E)---------------------------
B)---------------------------
G)---------------------------
D)---------------------------
A)-------0-1-0-0-0---1-1-----
E)-0-0-2-----------2---------

PRECORO:

G          D     C                   G
Como un extranjero yo me vine a sentir.

G          D     C  C C
Saber lo que quiero.

CORO:
                    Em     B
No me quedo No me voy
              E        B             C        Am
Yo se donde voy. Y si me dan a elegir,           yo no me quedo, me voy.

INTRO

RIFF
E)---------------------------
B)---------------------------
G)---------------------------
D)-----4-------2-5-----------
A)-2-5---5-4-2-----2---------
E)---------------------------

Am                Em
Hay corazones rotos,

Am                 Em
hay lágrimas al fin.

Am                        Em
Debilidad, siempre la misma.

   Em          Am
E)---------------------------
B)---------------------------
G)---------------------------
D)---------------------------
A)-------0-1-0-0-0---1-1-----
E)-0-0-2-----------2---------


Am                Em
Pensé tenerte lejos,

Am                Em
saber que estas aquí.

Am              Am Em             Em
Tu gracia, al fin, siempre la misma.

PRECORO:

G          D     C                   G
Como un extranjero yo me vine a sentir.

G          D     C  C C
Saber lo que quiero.

CORO:
                    Em     B
No me quedo No me voy
              E        B             C        Am
Yo se donde voy. Y si me dan a elegir,           yo no me quedo, me voy.

INTRO

C                  Am            G             C
Sentir que estás dormido cuando hay que despertar.
C                Am            G          B
Tus manos el abrigo, luz en tanta oscuridad.

PRECORO:

G          D     C                   G
Como un extranjero yo me vine a sentir.

G          D     C  C C C C
Saber lo que quiero.

CORO:
                    Em     B
No me quedo No me voy
              E        B             C        Am
Yo se donde voy. Y si me dan a elegir,           yo no me quedo, me voy.

RIFF


ES UN CANTO MUY BUENO QUE ME GUSTE MUCHO ESPERO QUE A USTEDES IGUAL
QUE DIOS LOS BENDIGA

            
            
Suggest correction
Creating personal tab
Creating personal tab
You can edit any tab online and save it as your Personal.

You can edit, replace or remove any tab part or add personal notes – all changes will be seen only by you.

Personal tabs can be accessed anytime from any device, even offline.
Learn more »
Give kudos to tab author, rate the tab!
1 2 3 4 5
comments
print report bad tab
guest
Wanna post a correction for this tab? Suggest correction