Oops, an error
Loading. Please wait.

No More bass

by Rescate
41 views 1 this week
no commentswrite comment
1 2 3 4 5
3 more votes to show rating
add to favorites
×
Save as Personal and add changes to this tab that will be seen only by you. Learn more ›
×
You can save this tab as Personal to edit and correct it or add notes. All changes will be seen only by you. Learn more »
launch autoscroll
font size
0
reset
guitar tuner
edit
Autoscroll
slow
fast
+/-
esc
set tempo
stop
No more (BASS)

SI LOS NUMEROS TIENEN UN PUNTO AL COSTADO
DERECHO ES PORQ ESA PARTE ES UN POCO MAS RAPÍDO

INTRO

G)--------------------------------------
D)--------------------------------------    cUATRO
A)----------------------5-3------3--0.--     VECES
E)--5-5-5-3-5-5-8---3-3-3-------1-1-----

G)--------------------------------------
D)--------------------------------------
A)----------------------5-3------3--0.--
E)--5-5-5-3-5-5-8---3-3-3-------1-1-----
   No digas a Dios, no more, no more.

G)--------------------------------------
D)--------------------------------------
A)----------------------5-3------3--0.--
E)--5-5-5-3-5-5-8---3-3-3-------1-1-----
   No bajes la voz, no more, no more.

G)--------------------------------------
D)--------------------------------------
A)----------------------5-3------3--0.--
E)--5-5-5-3-5-5-8---3-3-3-------1-1-----
   No mires atrás, no more, no more.

G)--------------------------------------
D)--------------------------------------
A)----------------------5-3------3--0.--
E)--5-5-5-3-5-5-8---3-3-3-------1-1-----
   Te derribarán, no more, say no more.
G)--------------------------------------
D)--------------------------------------
A)----------------------5-3------3--0.--
E)--5-5-5-3-5-5-8---3-3-3-------1-1-----

   No digas a Dios, no more, no more.

G)--------------------------------------
D)--------------------------------------
A)----------------------5-3------3--0.--
E)--5-5-5-3-5-5-8---3-3-3-------1-1-----
   No bajes la voz, no more, no more.

CHORUS

G)------------------------------------
D)------------------------------------
A)--------3-2.----------5-5--5--7.----
E)-1-1-3.-------3-3-5-----------------
   La noche que por fín terminó,

G)------------------------------------
D)------------------------------------
A)--------3-3-3-2.-- ---5-5--5--7.----
E)-1-1-3.---------3-3-5---------------
   la muerte que la vida me da,

G)-----------------------------------------------------
D)-----------------------------------------------------
A)--------3-2.----------5-5--5--7.---------3-2----2----
E)-1-1-3.-------3-3-5---------------1-1-3.------0---0--
   la cruz que se llevó mi dolor   me dio la libertad.

G)----------------------------------
D)----------------------------------
A)----------------------------------
E)----------------------------------
  No digas a Dios, no more, no more.

G)----------------------------------
D)----------------------------------
A)----------------------------------
E)----------------------------------
  Resiste el dolor, dolor, no more.

G)--------------------------------------
D)--------------------------------------
A)----------------------5-3------3--0.--
E)--5-5-5-3-5-5-8---3-3-3-------1-1-----
 Dejarte caer, no more, no more.

G)--------------------------------------
D)--------------------------------------
A)----------------------5-3------3--0.--
E)--5-5-5-3-5-5-8---3-3-3-------1-1-----
Se puede volver, no more, say no more.

CHORUS

BRIDGE2


G)------------------------------------
D)------------------------------------
A)--------3-3-3-2.-- ---5-5--5--7.----
E)-1-1-3.---------3-3-5---------------
   LA LA LA LA LA LA NO MORE NO MORE


G)--------------------------------------------------------------------
D)--------------------------------------------------------------------
A)-----------------3----3----3---2.----------------------5----5--7----
E)-1----1----3.--------------------------3----3----5------------------
  Se termina la noche, se viene la mañana, se acaban los dolores, no more.


Dedicado al amor de mi vida Milagros Bocanegra

            
            
Suggest correction
Creating personal tab
Creating personal tab
You can edit any tab online and save it as your Personal.

You can edit, replace or remove any tab part or add personal notes – all changes will be seen only by you.

Personal tabs can be accessed anytime from any device, even offline.
Learn more »
Give kudos to tab author, rate the tab!
1 2 3 4 5
comments
print report bad tab
guest
Wanna post a correction for this tab? Suggest correction